Song name
# A B C D E F G H I J K L M N O P Q R S T U V W X Y Z

Hammerfall - Hearts On Fire tab

Follow the link to see me Playing this:
http://www.youtube.com/watch?v=54GlhD8fVCY


   Standard Tuning(EADGBE)

-----------------------------------------|----------------------------------|
-----------------------------------------|----------------------------------|
-----------------------------------------|----------------------------------|
--------------4--------------------------|----------4--------------------2--|
--4--4------------------4---------5---2--|--4---------------4--------5------|
--2--2---2-2-----2-2-2-----2-2-2----2----|----2-2-2---2-2-2---2-2-2----2----|

-----------------------------------------|----------------------------------|
-----------------------------------------|----------------------------------|
-----------------------------------------|----------------------------------|
--------------4--------------------------|--6-6-----6-------6---6---6-4-----|
--4--4------------------4---------5---2--|--4-4-4-4-4-4-4-4-4-4-4-4-4-2-----|
--2--2---2-2-----2-2-2-----2-2-2----2----|----------------------------------|


Tap to rate this tab
# A B C D E F G H I J K L M N O P Q R S T U V W X Y Z