Song name
# A B C D E F G H I J K L M N O P Q R S T U V W X Y Z

Hammock - Together Alone tab

Plenty of delay and reverb for both guitars

Intro:

d|----0-----00-------0------0-----00-------0-----0--|
A|----0-----00-------0------0-----00-------0-----0--|
F|----x-----99-------9------x-----66-------6-----4--|
C|14-----7--77----7--7--14-----4--44----4--4--2--2--|
G|14-----7--------7-----14-----4--44----4--4--2--2--|
D|14-----7--------7-----14-----4--------4-----2-----|

Verse:
Guitar 1:
d|---00-------0------0-----00-------0-----0--|
A|---00-------0------0-----00-------0-----0--|
F|---99-------9------x-----66-------6-----4--|  
C|7--77----7--7--14-----4--44----4--4--2--2--|
G|7--------7-----14-----4--44----4--4--2--2--|
D|7--------7-----14-----4--------4-----2-----|

Guitar 2:
At 1:35
d|-17----12--------------------------------------------|
A|-------------14----15----------------17----15--------|
F|-------------------------16----14--------------------|
C|-----------------------------------------------------|
G|-----------------------------------------------------|
D|-----------------------------------------------------|

d|-17----12--------------------------------------------|
A|-------------14----15----------------15----17--------|
F|-------------------------16----14--------------------|
C|-----------------------------------------------------|
G|-----------------------------------------------------|
D|-----------------------------------------------------|

d|-17----12--------------------------------------------|
A|-------------14----15----------------17----15--------|
F|-------------------------16----14--------------------|
C|-----------------------------------------------------|
G|-----------------------------------------------------|
D|-----------------------------------------------------|

d|-17----12--------------------------------------------|
A|-------------14----12--------------------------------|
F|-------------------------14--------------------------|
C|-----------------------------------------------------|
G|-----------------------------------------------------|
D|-----------------------------------------------------|




Guitar 1:

d|-7---5------12---9---7------9--5-------------------|
A|------------------------0--------------------------|
F|---------------------------------------------------|   
C|---------------------------------------------------|
G|-7---5------12---9---7------9--5-------------------|
D|---------------------------------------------------|

d|-----5------12---9---7------9--5-------------------|
A|------------------------0--------------------------|
F|---------------------------------------------------|   
C|---------------------------------------------------|
G|-----5------12---9---7------9--5-------------------|
D|---------------------------------------------------|


d|----0-----00-------0------0-----00-------0-----0--|
A|----0-----00-------0------0-----00-------0-----0--|
F|----x-----99-------9------x-----66-------6-----4--|
C|14-----7--77----7--7--14-----4--44----4--4--2--2--|
G|14-----7--------7-----14-----4--44----4--4--2--2--|
D|14-----7--------7-----14-----4--------4-----2-----|

Back to verse:
Guitar 1:
d|---00-------0------0-----00-------0-----0--|
A|---00-------0------0-----00-------0-----0--|
F|---99-------9------x-----66-------6-----4--|  
C|7--77----7--7--14-----4--44----4--4--2--2--|
G|7--------7-----14-----4--44----4--4--2--2--|
D|7--------7-----14-----4--------4-----2-----|

Guitar 2:
At: 3:00
d|-21-21--17---17--------------21-21--17---17----------|
A|-------------------19---------------------------17---|
F|-----------------------------------------------------|
C|-----------------------------------------------------|
G|-----------------------------------------------------|
D|-----------------------------------------------------|

At: 3:42


d|-17----12--------------------------------------------|
A|-------------14----15----------------17----15--------|
F|-------------------------16----14--------------------|
C|-----------------------------------------------------|
G|-----------------------------------------------------|
D|-----------------------------------------------------|

d|-17----12--------------------------------------------|
A|-------------14----15----------------15----17--------|
F|-------------------------16----14--------------------|
C|-----------------------------------------------------|
G|-----------------------------------------------------|
D|-----------------------------------------------------|



d|-17----12--------------------------------------------|
A|-------------14----15----------------17----15--------|
F|-------------------------16----14--------------------|
C|-----------------------------------------------------|
G|-----------------------------------------------------|
D|-----------------------------------------------------|

d|-17----12--------------------------------------------|
A|-------------14----15----------------15----17--------|
F|-------------------------16----14--------------------|
C|-----------------------------------------------------|
G|-----------------------------------------------------|
D|-----------------------------------------------------|

d|-17----12--------------------------------------------|
A|-------------14----15----------------17----15--------|
F|-------------------------16----14--------------------|
C|-----------------------------------------------------|
G|-----------------------------------------------------|
D|-----------------------------------------------------|

d|-17----12--------------------------------------------|
A|-------------14----15--------------------------------|
F|-------------------------16--------------------------|
C|-----------------------------------------------------|
G|-----------------------------------------------------|
D|-----------------------------------------------------|



Guitar 1:

d|-7---5------12---9---7------9--5-------------------|
A|------------------------0--------------------------|
F|---------------------------------------------------|   
C|---------------------------------------------------|
G|-7---5------12---9---7------9--5-------------------|
D|---------------------------------------------------|

d|-----5------12---9---7------9--5-------------------|
A|------------------------0--------------------------|
F|---------------------------------------------------|   
C|---------------------------------------------------|
G|-----5------12---9---7------9--5-------------------|
D|---------------------------------------------------|
Guitar 2: 
At: 5:51
d|-21-21--17---17--------------21-21--17---17----------|
A|-------------------19---------------------------17---|
F|-----------------------------------------------------|
C|-----------------------------------------------------|
G|-----------------------------------------------------|
D|-----------------------------------------------------|
Tap to rate this tab
 
# A B C D E F G H I J K L M N O P Q R S T U V W X Y Z