Song name
# A B C D E F G H I J K L M N O P Q R S T U V W X Y Z

Hand Drawn Mountains - Happiness tab

-----------------------------------------------------------------
HAPPINESS - Hand Drawn Mountains
-----------------------------------------------------------------
Tabbed by: Grubsy		
Email:burkasmom@yahoo.com
Website: www.myspace.com/handdrawnmountains

Tuning: Standard (EADGBe)

This is the intro/verse that John plays:

e|---------0------------------0----------------------------------|
B|---------5------------------5----------------------------------|
G|------6-----6------------6-----6-------------------------------|
D|---------------6------------------6----------------------------|
A|---4-------------4----4-------------4--------------------------|
E|---------------------------------------------------------------| 

e|-----------0-------------------0-------------------------------|
B|-----------5-------------------5-------------------------------|
G|--------6-----6-------------6-----6----------------------------|
D|---------------------------------------------------------------|
A|-------------------------------------0-------------------------|
E|---4-5-----------4-5---4-5-------------------------------------|

e|---------0------------------0----------------------------------|
B|---------5------------------5----------------------------------|
G|------6-----6------------6-----6-------------------------------|
D|---------------6------------------6----------------------------|
A|(0)-4-------------4----4-------------4-------------------------|
E|---------------------------------------------------------------|

This part is 100% accurate, just figure out how many times each part is played.



Marcia comes in with these chords during the verse:

e|----0----0----|
B|----5----2----|
G|----6----2----|
D|----6----2----|
A|----4----0----|
E|----4---------|

| /  slide up
| \  slide down
| h  hammer-on
| p  pull-off
| ~  vibrato
| +  harmonic
| x  Mute note

So far this is all I have. Message me if you figure out the rest.
Tap to rate this tab
 
# A B C D E F G H I J K L M N O P Q R S T U V W X Y Z