Song name
# A B C D E F G H I J K L M N O P Q R S T U V W X Y Z

Hands Like Houses - Weight tab

This is my first tab, and I haven't been playing guitar very long :p 
There may be a couple mistakes, sorry! Anyway, I noticed that there 
wasn't a tab for this song at all, so I figured out the intro.. 
Might put up the full song later.

Enjoy!! :)

Standard Tuning

|------9--8--------------------------------------------------|
|-9h11-------9-11-6---4-6------6-7-9--7---6--------6---------|
|--------------------------6h8---------------6---6---8-6---6-|
|----------------------------------------------8---------8---|
|------------------------------------------------------------|
|------------------------------------------------------------|


|---------6-----------6-----------8-----------8-|
|-----------------------------------------------|
|-----------------------------------------------|
|-8-6-8-6-----8-6-8-6-----8-6-8-6-----8-6-8-6---|
|-----------------------------------------------|
|-----------------------------------------------|


|---------6-----------6-------------8-------------8-|
|---------------------------------------------------|
|-8-6-8-6-----8-6-8-6-----10-8-10-8-----10-8-10-8---|
|---------------------------------------------------|
|---------------------------------------------------|
|---------------------------------------------------|
Tap to rate this tab
 
# A B C D E F G H I J K L M N O P Q R S T U V W X Y Z