Song name
# A B C D E F G H I J K L M N O P Q R S T U V W X Y Z

Hangnail - Something More tab

Intro:
play through twice
e|---------------------------------------------------------------------------|
B|---------------------------------------------------------------------------|
G|---------------------------------------------------------------------------|
D|--------7----5----4----5-4-5-4-----7----5----4----5-4-5-4------------------|
A|-----55---55---55---55----------00---00---00---00--------------------------|
E|---------------------------------------------------------------------------|

e|---------------------------------------------------------------------------|
B|---------------------------------------------------------------------------|
G|---------------------------------------------------------------------------|
D|--------7-----------------------------7----5----4----5-4-5-4---------------|
A|-------------10----9----10-9-10-9------------------------------------------|
E|-----77---77----77---77------------33---33---33---33-----------------------|

 Play this twice through (listen to the song to get the strum pattern)

     D   A   B    G    A
e|-------------------------------------------------------------------------------|
B|-------------------------------------------------------------------------------|
G|----7-----------12---14--------------------------------------------------------|
D|----7---7---9---12---14--------------------------------------------------------|
A|E|--------5---7----------------------------------------------------------------|

Verse: strum each chord once and hold

      D   A   B   G
e|----5---5---7---3----------------------------------------------------------|
B|----5---5---7---3----------------------------------------------------------|
G|----7---6---7---4----------------------------------------------------------|
D|----7---7---9---5----------------------------------------------------------|
A|----5---7---9---5----------------------------------------------------------|
E|--------5---7---3----------------------------------------------------------|

Chorus:
      D   A   B   G   A    G    A
e|---------------------------------------------------------------------------|
B|---------------------------------------------------------------------------|
G|----7-------------------12---14--------------------------------------------|
D|----7---7---9---5---7---12---14--------------------------------------------|
A|----5---7---9---5---7---10---12--------------------------------------------|
E|--------5---7---3---5------------------------------------------------------|

the chorus goes like this:

      D       A      B        G A   G A
     now I've got a piece of mind

      D          A   B     G A   G A
     theres just no better way

      D     A         B    G A   G A
     and if i should die tonight

      D     A   B   G  A
     that would be alright

After the chorus go back to the chords used in the intro then use the chords for
the verse. After the second verse it goes to the chorus then it repeats the
intro and thats it.
Tap to rate this tab
# A B C D E F G H I J K L M N O P Q R S T U V W X Y Z