Song name
# A B C D E F G H I J K L M N O P Q R S T U V W X Y Z

Hank Garland - Sugarfoot Rag tab

"Sugarfoot Rag"-Hank Garland-1949

I've just put together a few of the better tabs from around the web, since the 
ones here are not very good. This is NOT the way Hank plays it, I'm currently 
working that out, but it is a good place to start for the basic melody. 

There's also an okay version here:

http://www.shareoutloud.com/lesson/sugarfoot-rag-for-guitar/


Tab by Mike Wright

Pick-up measure
  N/C
  |   |   |   |
|---------------0-|
|-------------3---|
|-----------------|
|-----------------|
|-----------------|
|-----------------|

Part A
  G                 F                 G                 D7      G
1 |   |   |   |   2 |   |   |   |   3 |   |   |   |   4 |   |   |   |
|-3-2-3-5-3-0---0-|-1-0-1-3-1-------|-----------------|---------------0-|
|-------------3---|-----------------|---3-------------|-------------3---|
|-----------------|-----------------|/4---4-0-2-0---0-|-------0---------|
|-----------------|-----------------|-------------2---|-0-2-4/5-5-------|
|-----------------|-----------------|-----------------|-----------------|
|-----------------|-----------------|-----------------|-----------------|

  G                 F                 G                 D7      G
5 |   |   |   |   6 |   |   |   |   7 |   |   |   |   8 |   |   |   |
|-3-2-3-5-3-0---0-|-1-0-1-3-1-0---0-|-----------------|-----------------|
|-------------3---|-------------3---|---3-5-3---------|-----------------|
|-----------------|-----------------|/4-------4-2-0---|-------0---------|
|-----------------|-----------------|---------------2-|-0-2-4/5-5-------|
|-----------------|-----------------|-----------------|-----------------|
|-----------------|-----------------|-----------------|-----------------|


Part B
  G                                                     D7      G
9 |   |   |   |  10 |   |   |   |  11 |   |   |   |  12 |   |   |   |
|-----------------|-----------------|-----------------|-----------------|
|/3.-/3.--1-------|-3-0-1-2.--3.----|/3.-/3.--1-------|-----------------|
|/4.-/4.--2-0---0-|-4-0-2-3.--4.----|/4.-/4.--2-0---0-|-------0---------|
|-------------2---|-----------------|-------------2---|-0-2-4/5-5-------|
|-----------------|-----------------|-----------------|-----------------|
|-----------------|-----------------|-----------------|-----------------|

  G                                                     D7      G
13|   |   |   |  14 |   |   |   |  15 |   |   |   |  16 |   |   |   |
|-----------------|-----------------|-----------------|-----------------|
|/3.-/3.--1-------|-3-0-1-3-1-------|/3.-/3.--1-------|-----------------|
|/4.-/4.--2-0---0-|-4-0-2-4-2-0-----|/4.-/4.--2-0---0-|-------0---------|
|-------------2---|-------------2-0-|-------------2---|-0-2-4/5-5-------|
|-----------------|-----------------|-----------------|-----------------|
|-----------------|-----------------|-----------------|-----------------|
Tap to rate this tab
# A B C D E F G H I J K L M N O P Q R S T U V W X Y Z