Hank Williams Iii - Country Heroes tab

Hank Williams III - Country Heroes (intro) 
Tab by chevytrck 

e|--------------------------------------------------|
B|--------------------------------------------------|
G|--------------------------------------------------|
D|--2---2-1-0------2-0---0h2-0----------------------|
A|-----------3---3-------------3-0------------------|
E|--------------------------------------------------|

e|--0-------0------------------------------5-8-5----|
B|----1---1-------3s5--5-4-3----1-5-3--4s5----------|
G|------0--------------------5----------------------|
D|--------------------------------------------------|
A|--------------------------------------------------|
E|--------------------------------------------------|
Tap to rate this tab
 
# A B C D E F G H I J K L M N O P Q R S T U V W X Y Z