Song name
# A B C D E F G H I J K L M N O P Q R S T U V W X Y Z

Hanni El Khatib - Penny tab

-------------------------------------------------------------------------------
                              Hanni El Khatib - Penny
-------------------------------------------------------------------------------
Album : Head in the Dirt (2013)
Tempo : 130
E-mail: gwendal.mollo@orange.fr
Tabbed by: newg


Bass : 
  Intro      Main Riff 
G|---------|---------------|-----------------|---------------|--------------|
D|---------|---------------|-----------------|---------------|--------------|
A|---------|-3---3---3---3-|-3---3---3-----3-|-5---5---5---5-|-5---5--5----5|
E|---0-3-5-|---------------|-----------3-5---|---------------|---------0-3--|


Riff Guitar :
e|------------------|----------------------------|------------------|------|
B|--8-8-5----8----5-|-8-8--5----8-8--5--8--5-----|---------5--------|------|
G|------------------|--------------------------7-|-5---5-7-----7--5-|------|
D|------------------|----------------------------|---7--------------|-7----|
A|------------------|----------------------------|------------------|------|
E|------------------|----------------------------|------------------|------|

Verse :
         C
e|--------3------------3---------------|
B|-----x--5-------x----5---------------|
G|-----x--5-------x----5---------------|
D|-----x--5-------x----5---------------|
A|--------3-------x----3---------------|
E|-------------------------------------|  x2

         Dm
e|--------5------------5---------------|
B|-----x--6-------x----6---------------|
G|-----x--7-------x----7---------------|
D|-----x--7-------x----7---------------|
A|--------5-------x----5---------------|
E|-------------------------------------|  x2

Chorus : 

Guitar:
C C Dm Dm

Bass : 
G|----------------|------------------|----------------|-------------------|
D|----------------|------------------|----------------|-------------------|
A|---3--3----3--3-|---3--3----3--3---|---5--5----5--5-|---5--5----5--5--3-|
E|-3-------3------|-3-------3------3-|-5-------5------|-5-------5---------| 

x4



Bridge : 
   Em              C      Em
e|--7-----|      |-3------7----------|
B|--8-----|      |-5------8----------|
G|--9-----|      |-5------9----------|
D|--9-----|      |-5------9----------|
A|--7-----|      |-3------7----------|
E|--------| x4   |-------------------| x2
Tap to rate this tab
# A B C D E F G H I J K L M N O P Q R S T U V W X Y Z