Song name
# A B C D E F G H I J K L M N O P Q R S T U V W X Y Z

Hanni El Khatib - Heartbreak Hotel chords

Highlighted       Show chord diagrams
----------------------------------------------------------------------------
Hanni El Khatib - HEARTBREAK HOTEL
----------------------------------------------------------------------------
This song is a cover of the famous Elvis song heartbreak hotel. For the rhythm pluck the 
note with the thumb then strum, use barre chords. Feel free to correct or add missing part.

        Dm                Bb
e|-------------------------------|
B|----6----6---------------------|
G|----7----7------------7-----7--|
D|----7----7------------8-----8--|
A|--5-5----5------------8---8-8--|
E|-------5------------6-6--------|

Dm
Well, since my baby left me,
Dm
I found a new place to dwell.
Bb
Its down at the end of lonely street
Dm
At heartbreak hotel.

Dm
And although it's always crowded,
Dm
You still can find some room.
Bb
Where broken hearted lovers
Dm
Do cry away their gloom.

Dm
You make me so lonely baby,
Dm
I get so lonely,
Bb
You make me so lonely baby
Dm
I get so lonely I could die.

**1:14**(here the second guitar kicks in, just improvise on the D blues scale)

Dm
Well, the bell hops tears keep flowin,
Dm
And the desk clerks dressed in black.
Bb
Well they been so long on lonely street
Dm
They ain't ever gonna look back.

Dm
Hey now, if your baby leaves you,
Dm
And you got a tale to tell.
Bb
Just take a walk down lonely street
Dm
To heartbreak hotel.

Dm
You make me so lonely baby,
Dm
I get so lonely I could die.
Bb
You make me so lonely baby,
Dm
I get so lonely I could die.
Tap to rate this tab
# A B C D E F G H I J K L M N O P Q R S T U V W X Y Z