Song name
# A B C D E F G H I J K L M N O P Q R S T U V W X Y Z

Happy Campers - Voices tab

                          Voices (remix) Happy Campers   
    
Verse
e[------------------------------------------0-----]
b[------4---------0-2-0-------0-2-0-------0---0---]
g[----4---4---------------------------------------] 
d[--4-------4---4-------4---2-------2-----------4-]
a[2-----------------------0-------------2---------] (play 4x)
E[------------2-----------------------0-----------]
Chorus
e[---------------]
b[---------------]
g[-----11--9--9--]
d[--9--11--9--9--] (play 2x)
a[--9---9--7--7--] (listen for timing and strumming)
E[--7------------]
Solo
e[---2---2---0-----2-----2-2-2-4-6-4-2-0-0---0-0---0-----]
b[-5---5---4---4h5---4h5-2-0---------------4-----4-5/7/5-]
g[-------------------------4-----------------------------]
d[-------------------------------------------------------]
a[-------------------------------------------------------]
E[-------------------------------------------------------]
Solo Cont.
e[---0-2-4-2-0---7-6-7-9-7-6-------12-12-12-12-12-12/14/12-]
b[-5-----------4-------------7-7-7-------------------------]
g[---------------------------------------------------------]
d[---------------------------------------------------------]
a[---------------------------------------------------------]
E[---------------------------------------------------------]
Solo Cont.
e[-12-12-11-12h14-12-11----]
b[----------------------12-]
g[-------------------------]
d[-------------------------]
a[-------------------------]
e[-------------------------]

These are just sections of the song, to play the whole song as
you hear in the song, refer back to each section in this order
Verse, Chorus, Verse, Chorus, Solo, Verse, Chorus
(Solo is played over the verse)
also the part after the solo is too low for me to hear what
chords are being played, but the verse section fits there
anyway and doesnt sound funny, its basically just an alt. lead.
tomazzalina@aol.com or comment my page, this is my first tab
it took me a while i had to slow the song down for the solo lol
Tap to rate this tab
# A B C D E F G H I J K L M N O P Q R S T U V W X Y Z