Guitaretab - guitar tabs
Song name
# A B C D E F G H I J K L M N O P Q R S T U V W X Y Z

Hardline - Hey Girl tab

Song :hey girl 
Artist :hardline 
Album: hardline 2
Tab by: Djemai Sersoub: virusesattacks@hotmail.com 
 tuning :standard 
scale : F# ? 
Acoustic guitar :verse and prechorus 
Electric w distortion :chorus 
any corrections or suggestion are welcome .



 Figure 1: 
         F#                                                          A                                 E
E||--------------2-----------|----------0----x--0--|--x--0--0------------|
B||-----------2--------2-----|----------2----x--2--|--x--2--0------------|
G||--------3---------3---3---|----------2----x--2--|--x--2--1------------|
D||-----4--------------------|----------2----x--2--|--x--2--2------------|
A||--4-----------------------|----------0----x--0--|--x--0--2------------|
E||--------------------------|---------------------|--------0------------|

Intro: figure 1  2 

Verse: figure 1 4 

Prechorus: Strum  B     A      E   something like this :   
[ Tab from: http://www.guitaretab.com/h/hardline/142921.html ]
     B                                      A                   E            
E||--2------2--2--2--2----|--2--2--2--2--2--0------|--0--0--0----0--------|
B||--4------4--4--4--4----|--4--4--4--4--4--2------|--2--2--2----0--------|
G||--4------4--4--4--4----|--4--4--4--4--4--2------|--2--2--2----1--------|
D||--4------4--4--4--4----|--4--4--4--4--4--2------|--2--2--2----2--------|
A||--2------2--2--2--2----|--2--2--2--2--2--0------|--0--0--0----2--------|
E||-----------------------|------------------------|-------------0--------|

E||--2------2--2--2--2----|--2--2--2--2--2--0------|
B||--4------4--4--4--4----|--4--4--4--4--4--2------|
G||--4------4--4--4--4----|--4--4--4--4--4--2------|
D||--4------4--4--4--4----|--4--4--4--4--4--2------|
A||--2------2--2--2--2----|--2--2--2--2--2--0------|
E||-----------------------|------------------------|

Chorus: A5 B5 F#5 


 Lyrics:

Hey girl what are you tryin' to do

You've been staring at yourself in the mirror for an hour or two

Hey girl who are ya tryin' to be

Are you painting yourself a picture of you and me 

Prechorus:

No nobody knows you like I do

Like I do 

Chorus:
             
And you run run run
          
From the one you love
          
And you run run run
           
From the world we own 

Hey girl what are we supposed to do
Are you leaving it up to the heavens for guiding you
Hey girl don't be surprised if one day
You take another look in that mirror
And regret your ways 

Prechorus

No nobody knows you like I do
Like I do 
Refrain
Related for Hey Girl tab