Song name
# A B C D E F G H I J K L M N O P Q R S T U V W X Y Z

Harlem - Friendly Ghost tab

------------------------------------------
Harlem - Friendly Ghost
------------------------------------------

Tabbed by:NB

Most of the song is based around C#, G#. These are the two chords you hear the most

For the "i wanna disappear all the time" part:

e|---------------------------------------------|
B|---------------------------------------------|
G|-1-1-1---------------------------------------|
D|--------3-3-3--1-1-1--------6-6-6-6-6-6-6-6--|
A|---------------------3-3-3--6-6-6-6-6-6-6-6--|
E|----------------------------4-4-4-4-4-4-4-4--|

Do this two times then back to the C#, G# repetition.

Cheers
Tap to rate this tab
 
# A B C D E F G H I J K L M N O P Q R S T U V W X Y Z