Song name
# A B C D E F G H I J K L M N O P Q R S T U V W X Y Z

Harlequin League - Again And Again tab

Again And Again  Harlequin League
Standard Tuning
Listen to song to get timing of notes and such? =)

Intro

e|----------------------------------||
B|---8-----10---11------------------||
G|----------------------------------||
D|----------------------------------|| x4
A|----------------------------------||
E|----------------------------------||
  Tremolo Picking

e|----------------------------------||
B|---15---13---11-------------------||
G|----------------------------------||
D|----------------------------------|| x2
A|----------------------------------||
E|----------------------------------||
    Tremlo Picking

e|---13------12--------13-------15--||
B|----------------------------------||
G|----------------------------------||
D|----------------------------------|| x4
A|----------------------------------||
E|----------------------------------||
    Tremolo Picking

Verse

e|--x10x10-x10-10-10-10------------||
B|--x11x11-x11-11-11-11------------||
G|--x12x12-x12-12-12-12------------||
D|--x12x12-x12-12-12-12------------|| x2
A|--x10x10-x10-10-10-10------------||
E|----------------------------------||

e|------------------------------------13--12--13--15--13--12---||
B|-11---10---8--8-8--11---10---8--8-8--------------------------||
G|-------------------------------------------------------------||
D|-------------------------------------------------------------||
A|-------------------------------------------------------------||
E|-------------------------------------------------------------||
  
Repeat Verse x3

Pre Chorus

e|---------------------------------------||
B|---------------------------------------||
G|---------------------------------------||
D|-3-------8-------7-------12------------|| 
A|-3x16----8x16----7x16----12x16---------||
E|-1-------6-------5-------10------------||

Chorus 

e|----------------------------------||
B|---8-----10---11------------------||
G|----------------------------------||
D|----------------------------------|| x4
A|----------------------------------||
E|----------------------------------||
  Tremolo Picking

e|----------------------------------||
B|---15---13---11-------------------||
G|----------------------------------||
D|----------------------------------|| x2
A|----------------------------------||
E|----------------------------------||
    Tremlo Picking

e|---13------12--------13-------15--||
B|----------------------------------||
G|----------------------------------||
D|----------------------------------|| 
A|----------------------------------||
E|----------------------------------||
   Tremolo Picking
Repeat chorus x2

Repeat Verse x3
Repeat Pre chorus
Repeat Chorus x2   

Bridge

e|---13--12--13--15--13--12---------||
B|----------------------------------||
G|----------------------------------|| x2
D|----------------------------------|| 
A|----------------------------------||
E|----------------------------------||

e|----------------------------------||
B|----9-----------------------------||
G|----------------------------------|| 
D|----------------------------------|| 
A|----------------------------------||
E|----------------------------------||
   Tremolo Pick While slowly Bending the note upwards 

Repeat chorus until the end of the song

Bands Official myspace http://www.myspace.com/harlequinleague

Tap to rate this tab
# A B C D E F G H I J K L M N O P Q R S T U V W X Y Z