Song name
# A B C D E F G H I J K L M N O P Q R S T U V W X Y Z

Harper Ben - Walk Away tab

intro:
e------------------------------------------------- 
b--------2-2----------2-2--------2-2----------2-2-
g--------0-0----------0-0--------0-0----------0-0-
d-------------------------------------------------
a-------------------------------------------------
e--3-3---------2-2---------0-0---------02-2-------
(pause)

verse:
e-------------------------------------------------  
b--------2-2----------2-2--------2-2----------2-2-
g--------0-0----------0-0--------0-0----------0-0-
d-------------------------------------------------
a-------------------------------------------------
e--3-3---------2-2---------0-0---------02-2-------

chorus:(and it's so hard to do...)

e-------------------------------------------------  
b--------2-2----------2-2--------2-2----------2-2-
g--------0-0----------0-0--------0-0----------0-0-
d-------------------------------------------------
a--3-3---------2-2---------0-0---------02-2-------
e-------------------------------------------------

~~~~~~~~~~~~~~~~~~~~~~~~~~~~~~~~~~~~~~~~~~~~~~~~~~~~~~~~~~~~~~~~~~~~~~~~~~~~~~~~~~~~~~~~~

lyrics:
 
 verse:
  oh no here comes that sun again
  that means another day with out you, my friend
  and it hurts me to look into the mirror at myself
  and it hurts even more to have to be with somebody else
 
 chorus:
  and it's so hard to do
  and so easy to say
  but sometimes, sometimes you just have to walk away
  walk away
 
 verse 2:
  so many people to love in my life
  but why do i worry about one
  but you put the happy, in my ness
  you put the good times into my fun

 chorus:
  and it's so hard to do
  and so easy to say
  but sometimes, sometimes you just have to walk away
  walk away, and i head for the door

 bridge:
  we've tried the good bye, so many days
  we walked in the same direction
  so that we would never stray
  they say if you love somebody then you have got to set them free
  but i would rather be locked to you
  then live in this pain and misory

 verse:
  they say that time will make all this go away
  but it is time that has taken my tomarrows
  and turned them into yesterdays
  once again that risein sun is dropin on down again
  and once again, you my friend, are no where to be found 

chorus:
  and it's so hard to do
  and so easy to say
  but sometimes, sometimes you just have to walk away
  walk away, and head for the door
  just walk away, walk away, walk away, walk on
 

Tap to rate this tab
# A B C D E F G H I J K L M N O P Q R S T U V W X Y Z