Song name
# A B C D E F G H I J K L M N O P Q R S T U V W X Y Z

Harper Ben - Sweet Home Chicago tab

Help us improve GuitareTab! Take a short survey!
Tabbed By: Belavista Man
On: 20/11/07
E-mail: anthonybentley@hotmail.co.uk

Here's the intro to Quo's cover of the legendary Robert Johnson song, Sweet Home Chicago. Have fun!

e|--------------10-10-10-10-10-10-10-10-10----------------------------|
B|--------10-13----------------------------13-10-13-13----------------|
G|-11-h12----------------------------------------------12-10----10-10-|
D|-----------------------------------------------------------12-------|
A|--------------------------------------------------------------------|
E|--------------------------------------------------------------------|
                 G G#A
e|---------------------|
B|---------------------|
G|---------------------|
D|-12-10-9-------5-6-7-|
A|---------13-12-5-6-7-|
E|---------------3-4-5-|
Related for Sweet Home Chicago tab