Song name
# A B C D E F G H I J K L M N O P Q R S T U V W X Y Z

Harper Ben - Number Three tab

#

Date: Thu, 30 Oct 1997 15:55:35 +0100
From: Briac PILPRE 
Subject: TAB: Number Three  by Ben HARPER

Number 3 (Instrumental)
--------

Artist: Ben Harper

Album: The Will to Live

tabbed with TablEdit (http://www.care.easynet.fr/~mleschen/)
by Briac PILPRE 

Tuning: D G C F A D     Rythm: 2/4

 |       |        |       |        |       |        |       |        
|------0---------|------0---------|--0-------------|0---------------|
|--1-------------|----------------|----------------|----------1-----|
|----2-------0h2-|--2-----------2-|----------------|--------------0-|
|3-------3-------|----2-------2---|----2-------0---|----2-------2---|
|----------------|0-------0-------|0-------2-------|3-------3-------|
|----------------|----------------|----------------|----------------|

 |       |        |       |        |       |        |       |        
|0-------------0-|----------------|----------0-----|----------------|
|--------3-------|3p1-------------|------3---------|3---------------|
|----------------|------2---------|--2-----------0-|----------------|
|----2-------0---|----2-------2---|----0-------0---|----0-------0---|
|3-------2-------|0-------0-------|----------------|----------------|
|----------------|----------------|2-------2-------|3-------3-------|

 |       |        |       |        |       |        |       |        
|------0---------|------0---------|--0-------------|0---------------|
|--1-------------|----------------|----------------|----------1-----|
|----2-------0h2-|--2-----------2-|----------------|--------------0-|
|3-------3-------|----2-------2---|----2-------0---|----2-------2---|
|----------------|0-------0-------|0-------2-------|3-------3-------|
|----------------|----------------|----------------|----------------|

 |       |        |       |        |       |        |       |        
|0-------------0-|----------------|----------0-----|----------------|
|--------3-------|3p1-------------|------3---------|3---------------|
|----------------|------2---------|--2-----------0-|----------------|
|----2-------0---|----2-------2---|----0-------0---|----0-------0---|
|3-------2-------|0-------0-------|----------------|----------------|
|----------------|----------------|2-------2-------|3-------3-------|

 |       |        |       |        |       |        |       |        
|------0---------|------0---------|------0-------0-|----------------|
|--1-------------|--1-------------|1h3-----1h3-----|----------------|
|----2-------2---|----0-------0h2-|----2-------2---|----------------|
|3-------3-------|2-------2-------|0-------0-------|0---------------|
|----------------|----------------|----------------|----------------|
|----------------|----------------|----------------|----------------|
Tap to rate this tab
 
# A B C D E F G H I J K L M N O P Q R S T U V W X Y Z