Song name
# A B C D E F G H I J K L M N O P Q R S T U V W X Y Z

Harrod And Funck - Come Clean chords

Highlighted       Show chord diagrams
Come Clean by Harrod and Funck
Composed by Brian Funck

Tuning (low to high):   Brian: DADGAE
			Jason:  Standard Capo II

Chords to know:

Bm (no 3)
D A D G A E  string
| | | | | |
9 9 9 x x x  fret


G (no 3)
D A D G A E
| | | | | |
5 5 5 x x x


Em (no 3)
D A D G A E
| | | | | |
2 2 2 x x x


A (no 3)
D A D G A E
| | | | | |
7 7 7 x x x


D (for the verses)
D A D G A E  Brian's often doing the intro lick under the verses.
| | | | | |
0 5 4 x x x


Chords for right after "to come clean"

D with D on top
D A D G  A  E
| | | |  |  |
0 0 0 11 0  10

Gadd9
D A D G A E
| | | | | |
5 5 5 0 0 5  (I barre the bottom 3 strings with my 2nd finger and play the 
first with my 3rd finger)


Dsus with an F# on top
D A D G A E
| | | | | |
0 0 0 0 0 14


Dsus with an A on top
D A D G A E
| | | | | |
0 0 0 0 0 17

Intro:  12/8 time (count 1 & a, 2 & a, 3 & a, 4 & a)
beat:
1	2	3	4	|1	2	3	4	|1	2	3	4	|
Bm(no3)	Em(no3)	G(no3)	G(no3)	|Bm	Em	G	G	|Bm	Em	G	G	|


   a  1  &  a  2  &  a  3  &  a  4  &  a | 1  &  a  2  &  a  3  &  a  4  &  
a |
E----|-----------------------------------|------------------------------------|
A----|-----------------------------------|------------------------------------|
g----|---------0-------------------------|------------------------------------|
D----|------4-----4--------------4-------|-5----55--5----55--5----55--5-------|
A--5-|5h-7-----------7--7p-5--7--------7-|-5----55--5----55--5----55--5-----5-|
D--0-|0----------------------------------|-5----55--5----55--5----55--5-----0-| 
2x

        D            G                 D
We meet face to face always risking absurdity.
G                  D                             A
Wondering will you tire of me, it's a sleight of hand.
       D                                       G
Well I bet you won't catch me, catch me if you can.

              D
The world's a wonderful place
       G                      D
If you don't mind laughing at your mistakes,
       G                              D
If you don't mind feeling like you've lost your brakes,
                 A               Bm   		      D
And if you don't mind a touch of hell every now and then.

    D
You don't really know me,
    G                   D
The watery muck flowing through my veins?
    G             D
The psycho-babble on my brain,
                  A           Bm
Well it's all the rage.

Bm                A
And it drives men wild,
            Bm
This life unseen,

            A
And I'll do anything

To come clean.

D with D on top|G add 9 | Dsus with an F#| G add 9| Dsus with an A| A     |
               |        |                |        |               |       |

beat:
1	2	3	4	|  1x
Bm(no3)	Em(no3)	G(no3)	G(no3)  |


    a  1  &  a  2  &  a  3  &  a  4  &  a | 1  &  a  2  &  a  3  &  a  4  &  
a |
E----|-----------------------------------|------------------------------------|
A----|-----------------------------------|------------------------------------|
g----|---------0-------------------------|------------------------------------|
D----|------4-----4--------------4-------|-5----55--5----55--5----55--5-------|
A--5-|5h-7-----------7--7p-5--7--------7-|-5----55--5----55--5----55--5-----5-|
D--0-|0----------------------------------|-5----55--5----55--5----55--5-----0-| 
REPEAT


D
When did everything change?
         G                     D
Is this ache some new twist on growing pains.
G                       D
Holding a fist 'til the blood is drained
              A                       Bm                 D          G
The nails dig in. They may break your skin every now and then.
        D
Now I'm yearning disabled
  G                     D
Longing for nothing I'm certain of.
G                    D
Somehow reluctant to rise above
        A          Bm
All the rage.

Bm                A
And it drives men wild,
           Bm
This life unseen.
                A
Tonight I'll do anything, sweet Jesus,

To come clean.
D with D on top|G add 9 | Dsus with an F#| G add 9| Dsus with an A| A     |
               |        |                |        |               |       |


beat:
1	2	3	4	|  3x
Bm(no3)	Em(no3)	G(no3)	G(no3)  |


Ritard



   A  1  &  A  2  &  A  3  &  A  4  &  A | 1
E----|-----------------------------------|-----------------------|
A----|-----------------------------------|-----------------------|
g----|---------0-------------------------|-----------------------|
D----|------4-----4----------------------|-----------------------|
A--5-|5h-7-----------7--5----------------|-----------------------|
D----|------------------0----------------|-----------------------|
                        let ring




Notes:  1.  Although Brian is usually playing the power chords on the
bottom three strings, sometimes he throws in the open higher strings
too especially at the end of a phrase.

2.  The main melodic riff can be used any time you have the D to G
chord pattern; listen for when Brian does and when he doesn't.

3.  Most of the treble noodling is done by Jason around fairly
conventional fingerings for the chords.  If you find yourself wanting
to hear notes in certain places, try to add them.

4.  My reference point is how H&F played it circa 1996 so there may be
some discrepancies with the version on "Live" especially in the melodic 
riff.

5.  I tried to make rhythms clear, but they are--of
course--approximate.


Credits:
"Come Clean" Music by Brian Funck; Lyrics by Brian Funck under the
heavy influence of Lawrence Ferlinghetti; Tabbed by Jim Lawrie;
Figured out by Dan Morse and J.L.
Tap to rate this tab
 
# A B C D E F G H I J K L M N O P Q R S T U V W X Y Z