Guitaretab - guitar tabs
Song name
# A B C D E F G H I J K L M N O P Q R S T U V W X Y Z

Harry And The Potters - The Godfather tab

-------------------------------------------------------------------------------
		     THE GODFATHER - Harry And The Potters
-------------------------------------------------------------------------------
Tabbed by:Lupin Zygzak
Email:lupin_90@tlen.pl

Tuning:EADGBE

Verse (Part1):

     H        H           H        H           H        H         
E||--------------------|--------------------|--------------------|
B||--------------------|--------------------|--------------------|
G||--------------------|--------------------|--------------------|
D||--------------------|--------------------|--------------------|
A||-----------2--------|--2--------0--------|-----------2--------|
E||--3-----------------|--------------------|--3-----------------|


  H        H          
--------------------||
--------------------||
--------------------||
--------------------||
--2--------0--------||
--------------------||


Verse (Part2):
[ Tab from: http://www.guitaretab.com/h/harry-and-the-potters/159837.html ]
     E  E  E  E  E  E  E  E     E  E  E  E  E  E  E  E    
E||--------------------------|--------------------------||
B||--------------------------|--------------------------||
G||--------------------------|--------------------------||
D||--9--9--9--9--4--4--4--4--|--5--5--5--5--5--5--5--5--||
A||--9--9--9--9--4--4--4--4--|--5--5--5--5--5--5--5--5--||
E||--7--7--7--7--2--2--2--2--|--3--3--3--3--3--3--3--3--|| x4


Chorus:

     Q    E  E  E  E  E  E     E  E  E  E  E  E  E  E    
E||--3----3--3--3--3--3--3--|--0--0--0--0--1--1--1--1--||
B||--0----0--0--0--0--0--0--|--2--2--2--2--1--1--1--1--||
G||--0----0--0--0--0--0--0--|--2--2--2--2--2--2--2--2--||
D||--0----0--0--0--0--0--0--|--2--2--2--2--3--3--3--3--||
A||--2----2--2--2--2--2--2--|--0--0--0--0--3--3--3--3--||
E||--3----3--3--3--3--3--3--|--------------1--1--1--1--||  x4


Outro:

     H        H           H        H           H        H         
E||--------------------|--------------------|--------------------|
B||--------------------|--------------------|--------------------|
G||--------------------|--------------------|--------------------|
D||--------------------|--------------------|--------------------|
A||-----------2--------|--2--------0--------|-----------2--------|
E||--3-----------------|--------------------|--3-----------------|


  W                  
-------------------||
-------------------||
-------------------||
-------------------||
-------------------||
--3----------------||

Duration:
---------

W - whole note
H - half
Q - quarter
E - eight

Have Fun!

===============================================================================
Related for The Godfather tab
The Godfather chords by Harry And The Potters