Guitaretab - guitar tabs
Song name
# A B C D E F G H I J K L M N O P Q R S T U V W X Y Z

Harry Nilsson - Coconut tab

COCONUT - HARRY NILSSON
Tabbed by Joe Lindley
STANDARD TUNING (EADGBE)

This song is really easy because it is basically just a two bar riff based on the chord 
which is repeated all the way through the song.

INTRO
[ Tab from: http://www.guitaretab.com/h/harry-nilsson/61772.html ]
  C7                  x3
|-----------------0---|     |-----------------|
|---1---1---1-------1-|     |---1---1---1---1-|
|---3---3-----3-------|     |---3---3---3---3-|
|---------------2-----|     |-----------------|
|-3-------3-----------|     |-3-------3-------|
|-----3---------------|     |-----3-------3---|


REST OF SONG

  C7
|-----------------0---|
|---1---1---1-------1-|
|---3---3-----3-------|    REPEAT UNTIL END
|---------------2-----|
|-3-------3-----------|
|-----3---------------|


If you find any problems please post them on my profile blog.
Related for Coconut tab
Coconut chords by Harry Nilsson