Guitaretab - guitar tabs
Song name
# A B C D E F G H I J K L M N O P Q R S T U V W X Y Z

Haven - Beautiful Thing tab

    A                     C           G  
  
e|--0---0---0-0-0-0---0---0---0---0-0-2---2-2-2---|
b|--2---2---2-2-2-3---5---1---1---1-1-2---2-2-2---|
g|--2---2---2-2-22---2---0---0---0-0-0---0-0-0---|
d|--2---2---22-2-2---2---2---2---2-2-0---0-0-0---|			
a|--0---0---0-0-0-0---0---3---3---3-3-2---2-2-2---|
e|------------------------0---0---0-0-3---3-3-0---| 

    A                                 G                   
[ Tab from: http://www.guitaretab.com/h/haven/163366.html ]
e|--0---0---0-0-0-0---0---1---1---1-1-2---2-2-2---|
b|--2---2---2-2-2-3---5---1---1---1-1-2---2-2-2---|
g|--2---2---2-2-22---2---2---2---2-2-0---0-0-0---|
d|--2---2---22-2-2---2---0---0---0-0-0---0-0-0---|			
a|--0---0---0-0-0-0---0---0---0---0-0-2---2-2-2---|
e|------------------------------------3---3-3-0---| 

Ok is my first tab ever and this is only a small part of the song but no 1 else has done it yet!!!
If n e 1 else knows how it really goes then please let me know

Williammario1984@hotmail.co.uk
Related for Beautiful Thing tab