Song name
# A B C D E F G H I J K L M N O P Q R S T U V W X Y Z

Havok - Fatal Intervention tab

-------------------------------------------------------------------------------
			     Fatal Intervention - Havok
-------------------------------------------------------------------------------
Tabbed by: Wyatt Postlethwaite
Email: w_pwaite@hotmail.com

Tuning: Standard

Didn't point out Palm Mutes, but they should be simple to figure out.

Verse Riff

e|------------------------------------------------------------------------------|
B|------------------------------------------------------------------------------|
G|-------------3--4-------------------------------------------------------------|
D|-------------1--2--------4--3-------------------------------------------------|
A|----2--------------------2--1----------------2--------------------------------|
E|----0-0000---------0000-------0000--32032032-0--------------------------------|

e|------------------------------------------------------------------------------|
B|------------------------------------------------------------------------------|
G|--------3--4------------------------------------------------------------------|
D|--------1--2----------4--3----------------------------------------------------|
A|----------------------2--1-1111-------2---------------------------------------|
E|-0000---------0000---------------3322-0---------------------------------------|

e|-------------------------------------------------------------------------------|
B|-------------------------------------------------------------------------------|
G|------3--4---------------------------------------------------------------------|l
D|------1--2----------4--3-------------------------------------------------------|
A|--------------------2--1----------5--7--8--2-----------------------------------|
E|-0000--------0000----------000000-3--5--6--0-----------------------------------|



************************************

| /   slide up
| \   slide down
| h   hammer-on
| p   pull-off
| ~   vibrato
| +   harmonic
| x   Mute note
| b   Bend
| pb  Pre-bend
| br  Bend release
| pbr Pre-bend release
| brb Bend release bend

************************************
Tap to rate this tab
 
# A B C D E F G H I J K L M N O P Q R S T U V W X Y Z