Song name
# A B C D E F G H I J K L M N O P Q R S T U V W X Y Z

Hawks - Wish tab

b - bend
. - palm mute

Verse x8 (play under lead, cut the last one short and use the fill)
D|--------------------------|
A|--------------------------|
F|--------------------------|
C|-----4-----2-----5-----2--|
G|---4-----2-----5-----2----|
D|-2-----0-----3-----0------|
Lead Riff x2
D|----------------------------|
A|----------------------------|
F|---6b7b6-4-4-----6b7b6-4----|
C|-4-------------4---------5--|
G|----------------------------|
D|----------------------------|

Fill x1
D|----------------------------------|
A|----------------------------------|
F|----------------------------------|
C|-2-4-5----2----2----2----12-10-9--|
G|-2-4-5----2----2----2----10--9-7--|
D|-0-2-3----0----0----0-------------|


Chorus x2
D|-----------------------------------|
A|-----------------------------------|
F|-----------------------------------|
C|-2-2-2-2--4----5----4-----9-10-12--|
G|-2-2-2-2--4----5----4-----7-9--10--|
D|-0-0-0-0--2-0--3-0--2-0------------|
     . . .    .    .    .
D|-----------------------------------|
A|-----------------------------------|
F|-----------------------------------|
C|-2-2-2-2--4----5----4-----12-10-9--|
G|-2-2-2-2--4----5----4-----10--9-7--|
D|-0-0-0-0--2-0--3-0--2-0------------|
     . . .    .    .    .


Fill x1
D|---------------------------------------------|
A|---------------------------------------------|
F|---------------------------------------------|
C|-2--2-2---2---2---2---2---2---2-2-2-2-2-2-2--|
G|-2--2-2---2---2---2---2---2---2-2-2-2-2-2-2--|
D|-0--0-0---0---0---0---0---0---0-0-0-0-0-0-0--|
				. . . . . . .

Hey Hey Hey x4 (do your best to let everything ring.)
D|-----7-----7-----7-----7-----10-7-10-7--------------------|
A|---5-----5-----5-----5-----5------------------------------|
F|-4-----4-----4-----4-----4--------------------------------|
C|----------------------------------------------------------|
G|----------------------------------------------------------|
D|----------------------------------------------------------|

End x4
D|----------|
A|----------|
F|----------|
C|-2-4-5-2--|
G|-2-4-5-2--|
D|-0-2-3-0--|
Tap to rate this tab
 
# A B C D E F G H I J K L M N O P Q R S T U V W X Y Z