Song name
# A B C D E F G H I J K L M N O P Q R S T U V W X Y Z

Hay Colin - Overkill tab

----------------------------------------------------------------------------
			     Overkill(Acoustic solo) - Colin Hay
----------------------------------------------------------------------------
Tabbed by:	Dan Peng
Email:		dpeng2@eng.buffalo.edu

This solo is played by Colin Hay in the NBC hit comedy series Scrubs,
I would recommand the show to everyone, its brilliant and funny at the
same time, plus tons of guest appearances like Colin Hay himeself!

Even if you haven't seen the episode, you can play this between the chorus
and the verse to add more flavor to the song.

This is my first tab, so email me for corrections, thanks!


The 2nd guitar basically follow the chords though the verse, enjoy
[Verse]
D        D/C#
C        C/B
[Chorus]
Bm    Asus A
Bm    Asus A
F#sus4    F#   Gmaj7
G/A   Asus       A


The 2nd guitar basically follow the pattern though the verse, enjoy
      D       D/C#         C         C/B          D                           D/C#
e|---------------------------------------------------------------------------------|
B|---------------------------------------------------------------------------------|
G|---/7---/9-7-6---------4-5-----/7-5-4--------------------------------------------|
D|---------------------7----------------------7-5-4---4h5p4------------------------|
A|----------------------------------------------------------5---5-5h7p5---5-5------|
E|------------------------------------------------------------7---------7-----5----|

              C                D/C#
e|-------------------------------------------------|
B|-----------------------------6/7-----------------|
G|----------------------9-7------------------------|
D|--------7/9\7-----7/9----------------------------|
A|---5h7--7/9\7---9--------------------------------|
E|-7-----------------------------------------------|



| /  slide up
| \  slide down
| h  hammer-on
| p  pull-off

11/28/2005
Tab by Dan Peng
dpeng2@eng.buffalo.edu
Tap to rate this tab
# A B C D E F G H I J K L M N O P Q R S T U V W X Y Z