Song name
# A B C D E F G H I J K L M N O P Q R S T U V W X Y Z

Hayden - Bad As They Seem tab

----------------------------------------------------------------------------
			     Bad As They Seem - Hayden
----------------------------------------------------------------------------
Tabbed by:Konrad Kosieniak-Madejski
Email:

Tuning:EADGBe

I based this on one of the other tabs i saw on this site. It said something about
tuning the guitar all the way down, i did it, it sounded right but my strings were
fucked for the next two days, kept going out of tune(they're ok now if you really
want to do it. I think thats the way it ment to be played anyway.) This is the way
i like to play it.

The chords are:

Am|F|C|C X4 for the verse and
F|G|F|G|F|G|F|G|C X2 for the chorus

Coz the guitar is ment to be tuned so low, your better off playing just the EA and D strings

e|-------------------------------------------------------------------------|
B|-------------------------------------------------------------------------|
G|------------------------------------------------------------------X4-----|
D|----7---7-7-7-7-7-/-10--1010101010-\-5---5-5-5-5-5--------------for-verse|
A|----7---7-7-7-7-7-/-8---8-8-8-8-8--\-3---3-3-3-3-3----3----------3-------|
E|----5---5-5-5-5-5-/(8)-(8)8)8)8)8)-\(3)-(3)3)3)3)3)---3h5-3--3h5---------|
             Girl    Of   My          Dreams
             Things are as bad as     They seem
             Shes    on - ly          Sixteen
             Thats why Shes only      a Dream
e|-------------------------------------------------------------------------|
B|-------------------------------------------------------------------------|
G|------------------------------------------------------------------X4-----|
D|----7---7-7-7-7-7-/-10--1010101010-\-5---5-5-5-5-5--------------for-verse|
A|----7---7-7-7-7-7-/-8---8-8-8-8-8--\-3---3-3-3-3-3----3----------3-------|
E|----5---5-5-5-5-5-/(8)-(8)8)8)8)8)-\(3)-(3)3)3)3)3)---3h5-3--3h5---------|
             Woman   Of   My          Dreams
             Lives   Right down my    Street
             Has A   Daughter who's   Sixteen
             Thats why Shes only      A dream
e|---------------------------------|---------------------------------------|
B|---------------------------------|---------------------------------------|
G|---------------------------------|---------------------------------------|
D|----3---3---3-3-3-/-5---5---5-5-5|---5---5-------------------------------|
A|----3---3---3-3-3-/-5---5---5-5-5|x4-3---3---3-------3-------------------|
E|----1---1---1-1-1-/-3---3---3-3-3|---3---3---3h5-3---3h5-3--3h5-3--------|
             What do  I      do this
     for     Need to  get out some
     more    Go down  to the grocery
     store   Meet some one that i'll  adore
e|---------------------------------|-------------------------------|-------|
B|---------------------------------|-------------------------------|-------|
G|---------------------------------|-------------------------------|-------|
D|----3---3---3-3-3-/-5---5---5-5-5|---5---5-----------------------|-------|
A|----3---3---3-3-3-/-5---5---5-5-5|x4-3---3---3-------3----------3|x2-----|
E|----1---1---1-1-1-/-3---3---3-3-3|---3---3---3h5-3---3h5-3--3h5--|-------|
              Some one who makes me
     laugh    Someone to be my better
     half     Keep me warm under the
     sack.    Share with me my midnight               snack
Tap to rate this tab
# A B C D E F G H I J K L M N O P Q R S T U V W X Y Z