Song name
# A B C D E F G H I J K L M N O P Q R S T U V W X Y Z

Hayley Sales - More Than You Know tab

Hayley Sales Ė More Than You Know
Tabbed by Brashen

If you have any additions to the lyrics, thanks!

Capo  1
Standard tuning
For chord shapes look below

Intro:

Eó3h5p3-8ó5--3-5------3 ---------------------------3--1--0--1--0-|
B-----------------4s5---5--3--1-----1---1--3--3s5----------------|
G--------------------------------2----2--------------------------|
D----------------------------------------------------------------|
A----------------------------------------------------------------|
E----------------------------------------------------------------|

Verse

F               G                     C
Kickiní the rain watching the puddles grow
F              G                 C
After the park nowhere I want to go
F                  G               C
Hundreds of leaves follow my every step
F                 G         C
Trying my best to get me .. love

Chorus

              F     G
More than you know
                 C   C/B Am
More than youíll e---ver know
         F
I think about you
G                  C
More than you ever know

Verse: F, G, C

I followed the street all the way to its end
And turned back around recollecting all of my steps
Friends pass me by tossing me smiles and waves
I play in their game, just donít know how to play

Chorus

              F     G
More than you know
                 C   C/B Am
More than youíll e---ver know
         F
I think about you
G                  C
More than you ever know

Bridge

F                               G#
Youíre no good for me Iíve been racing cutting pastiní
          F               C    F                  C
But those cornerís always clear and youíre still here
F                                G#
I have tried to .. life tried to sing life tried to love life
      F                                  C
But escape is something from you I canít find

              F     G
More than you know
                 C   C/B Am
More than youíll e---ver know
         F
I think about you
G                  C
More than you ever know


(Whistle!)

              F     G
More than you know
                 C   C/B Am
More than youíll e---ver know
         F
I think about you
G                  C
More than you ever know(2x)
          F       G                     C
I think about you more than you'll ever know
          F       G                     C
I think about you more than you'll ever know


Chords:

   C  or  CIII   F    G    C/B   Am    G#
e--0--------3----1----3-----0-----0----4--|
B--1--------5----1----3-----1-----1----4--|
G--0--------5----2----4-----0-----2----5--|
D--2--------5----3----5-----2-----2----6--|
A--3--------3----3----5-----2-----0----6--|
E--x--------x----1----3-----x-----x----4--|
Tap to rate this tab
 
# A B C D E F G H I J K L M N O P Q R S T U V W X Y Z