Song name
# A B C D E F G H I J K L M N O P Q R S T U V W X Y Z

Hayseed Dixie - Omen tab

--------------------
HAYSEED DIXIE - OMEN
--------------------
Tabbed by: hoxxx
Email: hokkanen.hannu AT gmail.com

It's an omen, men, men, men....

Fiddle intro for guitar:
   Hm              Hm              G               A
e-|-----5-7-5-7-5-|-----5-7-5-7-5-|-----5-7-5-7-5-|-----------------|-
B-|---------------|---------------|---------------|-------7/8\7\5/7-|-    4x
G-|-7-------------|-7-------------|-9-------------|-9---9-----------|-
D-|---------------|---------------|---------------|-----------------|-
A-|---------------|---------------|---------------|-----------------|-
E-|---------------|---------------|---------------|-----------------|-

On the 4th repeat, replace the last bar with:
e-|-----------|-
B-|-----------|-
G-|-----------|-
D-|-7-6-5-4-3-|-
A-|-7-6-5-4-3-|-
E-|-5-4-3-2-1-|-

Hit the banjo! (Didn't transcripe that one, please do if you can)

Basically the chord progression through out the song is:
And the fiddle-intro is played like it is in the intro

Hm      Hm      G       A 

Now, writings on the wall
And it won't go away
It's an omen, you just ran out of...

Now, writings on the wall
And it won't go away
It's an omen...

It's an omen
It's an omen

Now, writings on the wall
And it won't go away
It'r an omen, you just ran out of...

Now!
Now!

Here, play
e-|-----------|-
B-|-----------|-
G-|-----------|-
D-|-7-6-5-4-3-|-
A-|-7-6-5-4-3-|-
E-|-5-4-3-2-1-|-

And then mandolin: (Repeat 4x)
E-|-7-7-7-7-7-7-7-7-|-6-6-6-------6-6-|-
A-|-----------------|-------9-9-9-----|-
D-|-----------------|-----------------|-
G-|-----------------|-----------------|-

Or with guitar:
e-|-7-7-7-7-7-7-7-7-|-6-6-6-------6-6-|-
B-|-----------------|-------8-8-8-----|-
G-|-----------------|-----------------|-
D-|-----------------|-----------------|-
A-|-----------------|-----------------|-
E-|-----------------|-----------------|-

Then back to chord progression:

Hm      Hm      G       A 

Now, writings on the wall
And it won't go away
'cause it's an omen, you just ran out of...

Now, writings on the wall
It won't go away
It's an omen...

It's an omen
It's an omen
It's an omen

Now!
Now!

e-|-----------|-
B-|-----------|-
G-|-----------|-
D-|-7-6-5-4-3-|-
A-|-7-6-5-4-3-|-
E-|-5-4-3-2-1-|-

I'm a firestarted, twisted firestarter
You're a firestarter, twisted firestarter

Now!

And then mandolin: (Repeat 4x)
E-|-7-7-7-7-7-7-7-7-|-6-6-6-------6-6-|-
A-|-----------------|-------9-9-9-----|-
D-|-----------------|-----------------|-
G-|-----------------|-----------------|-

Or with guitar:
e-|-7-7-7-7-7-7-7-7-|-6-6-6-------6-6-|-
B-|-----------------|-------8-8-8-----|-
G-|-----------------|-----------------|-
D-|-----------------|-----------------|-
A-|-----------------|-----------------|-
E-|-----------------|-----------------|-
Tap to rate this tab
# A B C D E F G H I J K L M N O P Q R S T U V W X Y Z