Song name
# A B C D E F G H I J K L M N O P Q R S T U V W X Y Z

He Is Legend - Seduction tab

hey, sorry I only tabbed up until about 2:40 cuz i cant pick out the guitar parts. heres 
I got, if theres anyone who has a better tab, then plz put it up. its in drop D by the 
If you listen to the song, you'll get this right away.

Seduction by Alesana

1 and then a 1   means 11; -11-

                             X 1
|-----------------------------------------------------------|
|-----------------------------------------------------------|
|-----------------------------------------------------------|
|-77777-77-77-77--99999-99-99-99--1111111111-1111-1111-1111-|
|-77777-77-77-77--99999-99-99-99--1111111111-1111-1111-1111-|
|-77777-77-77-77--99999-99-99-99--1111111111-1111-1111-1111-|


                     X 3  i think (dont forget bottom part)
|----------------------------------------------------------------------------|
|---------------12---------------------12-----------------------------12-----|
|---9-11--9--11----11----11-13--11--13----11------11--13----11----13------11-|
|-77-7--77-77--7--7----99--9--99--99--9--9----1111--11--1111--1111--11--11---|
|----------------------------------------------------------------------------|
|----------------------------------------------------------------------------|


---------------------------------|
--------------------------14--12-|
------11--13----11----13---------|
--1111--11--1111--1111--11--11---|
---------------------------------|
---------------------------------|


        BREAK             X 1
|--------------------------------------------------------|
|0-0-5p0h7p0h5p0h7p0h5p0h7s9-0-0-5p0h7p0h5p0h7p0h5p0h5p4-|
|--------------------------------------------------------|
|--------------------------------------------------------|
|--------------------------------------------------------|
|--------------------------------------------------------|
 cries escape...

-------------------------------------|
--0-0-5p0h7p0h5p0h7p0h5p0h7s9s5~~----|
-------------------------------------|
-------------------------------------|
-------------------------------------|
-------------------------------------|
               ...one last time....


                 chorus          X 1
|--------------------------------------------------------------------|
|--------------------------------------------------------------------|
|--------------------------------------------------------------------|
|6666666666666666666666666666-6-4------------------------------------|
|4444444444444444444444444444-4-2-6-77777777777777777777777777777777-|
|---------------------------------6-77777777777777777777777777777777-|
do you remember me...

|-----------------------------------------------------------------|
|-----------------------------------------------------------------|
|-6-666-8-888-9-999-11-1111--88--13131313131313131313131313131313-|
|-----------------------------------------------------------------|
|-4-444-6-666-7-777--9--9-9--66--11111111111111111111111111111111-|
|-----------------------------------------------------------------|


-------------------------------------|
-------------------------------------|
-------------------------------------|
--1111111111111111-13131313-14141414-|
-------------------------------------|
-------------------------------------|
  xxxxxxxxxxxxxxxx xxxxxxxx xxxxxxxx


|---------------------------------------------------------|
|---------------------------------------------------------|
|88-88-88-88-88-88--66--88--99-99-99-99-99-99--1111--1414-|
|---------------------------------------------------------|
|66-66-66-66-66-66--44--66--77-77-77-77-77-77--9-9---1212-|
|---------------------------------------------------------|


       X 2
|--------------|-------------------------------------------|
|----12-----12-|--------12---------12----------------------|
|--9------9----|----11---------11--------9-11--9--11-13-11-|
|99-9---99-9---|1111--11---1111--11----99-9--99-99--9--9---|
|--------------|-------------------------------------------|
|--------------|-------------------------------------------|


XXXXXXXXXXX   REPEAT the BREAK  and CHORUS  XXXXXXXXXXXXXXXXXXX


   2:01 (cool part)   X2
|--------------------------------7h9--|
|-----8h9------9h10------8h9----------|
|-------------------------------------|
|6666-----6666------------------------|
|4444-----4444------4444-----7777-----|
|-------------------4444-----7777-----|


   Mini Solo  X2
|----------------------------------------------|
|----------------------------------------------|
|9-8h9p8-8-9-8h9p8--8s6-6-6s8-8-8h9--9s11-9-8--|
|-------9---------9--------------------------9-|
|----------------------------------------------|
|----------------------------------------------|


That is all I got so far so enjoy!!


key:

s = slide
h = hammer on
p = pull off
x = palm mute
| = begining or end of section

tabbed by Jake T.
Tap to rate this tab
# A B C D E F G H I J K L M N O P Q R S T U V W X Y Z