Song name
# A B C D E F G H I J K L M N O P Q R S T U V W X Y Z

Head East - Never Been Any Reason tab

Never Been Any Reason
(Tabbed by Corey Heinrich)


        C                           D
......Have you ever been lonely   Do you have any any fun......

        C                     G                 D
......Save my life I'm goin down for the last time......


       Guitar #2 or Bass Intro
E----------------------------------------------------------------------------------------|
B----------------------------------------------------------------------------------------|
G----------------------------------------------------------------------------------------|
D-----------------------------------0--0--0--------0--0--0-------------------------------|
A-------------2--3--3--3-----3--------------3--------------------------------------------|
E-----3--3-------------------------------------------------------2--3--3--3--------------|


E----------------------------------------------------------------------------------|
B----------------------------------------------------------------------------------|
G----------------------------------------------------------------------------------|
D----------------------------0--0--0--------0--0--0--------0--0--0--------0--0--0--|
A---2--3--3--3--------3--------------3----------------3---------------3------------|
E----------------------------------------------------------------------------------|


        Guitar # 2 or Bass Rythm                        Repeat Over & Over
E---||------------------------------------------------------------------------||--|
B---||------------------------------------------------------------------------||--|
G---||*--------------------------------------------------------------------*||----|
D---||*--------------------------------------------------------------------*||----|
A---||-------------------------------------------0--0--0--------0--0------||------|
E---||---2--3--3--3--------3--3--------3---------------------------------||-------|


    Riff After 1st Verse                                Repeat
E-------------------------------------------7--5------------------------||---|
B------------5---5--7--8-------7--8--------------8p7p5-----------||----------|
G---5--7--------------------7-----------------------------------7-----||-----|
D------------------------------------------------------------------------||--|
A------------------------------------------------------------------------||--|
E------------------------------------------------------------------------||--|


           Solo
E------||-----------------------------------------------------5--7----------7--5--10--|
B------||--8p7p5-----8p7p5-----8p7p5-----8p7p5------------5---------------------------|
G------||-----------------------------------------------------------------------------|
D------||-----------------------------------------------------------------------------|
A------||-----------------------------------------------------------------------------|
E------||-----------------------------------------------------------------------------|

      ... end of solo
E-----------------------------------------------------------1/10-----1/10--|
B--------------------------------------------------------------------------|
G------3--5--7--------3--5--7--------3--5--7-------------------------------|
D--------------------------------------------------------------------------|
A--------------------------------------------------------------------------|
E--------------------------------------------------------------------------|

Here's the part where the chorus goes acapella with just the bass in between:
"Save my life I'm goin down for the last time".............  then play this:    last 
is -1 (D) for this part
E--------------------------------------------------------|
B--------------------------------------------------------|
G--------------------------------------------------------|
D--------------------------------------------------------|
A--------------------------------------------------------|
D-----0---0h2/7----7----7h9----12----9-------------------|
Tap to rate this tab
# A B C D E F G H I J K L M N O P Q R S T U V W X Y Z