Song name
# A B C D E F G H I J K L M N O P Q R S T U V W X Y Z

Heathen - Undone tab

E------------------------------------------------------------------------------|
B------------------------------------------------------------------------------|
G------------------------------------------------------------------------------|
D-------9-8----7-----------9-8----7-----------9-8----7-------------------------|
A-7---7-----10---8---7---7-----10---8---7---7-----10---8-----------------------|
E---7------------------7------------------7------------------------------------|

-------------------------------------------------------------------------------|
-------------------------------------------------------------------------------|
-------------------------------------------------------------------------------|
-------------------10----------------------------------------------------------|
-8---8-10----12----------------------------------------------------------------|
---8------10----13-------------------------------------------------------------|
Tap to rate this tab
 
# A B C D E F G H I J K L M N O P Q R S T U V W X Y Z