Heathens Rage - City Of Hell tab

Intro:

e|------------------------------------|
B|------------------------------------|
G|-----4-------4-------4-------4------|
D|-4---4-5-4---4-4-5---4-4-7---4--5--2|
A|-4---2-5-4---2-4-5---2-4-7---2--5--2|
E|-2-----3-2-----2-3-----2-5------3--0|


                           Verse:
e|------------------------|------------------------------------------------|
B|------------------------|------------------------------------------------|
G|------------------------|------------------------------------------------|
D|-14--12--11--12--11--7--|-9---------------7--12--11--7--9----------------|
A|-12--10---9--10---9--5--|-77777777777777775--10--10--5--7777777777777777-|
E|------------------------|------------------------------------------------|
                             |pm............|              |pm............|
-------------|
-------------|
-------------|
12--11--14--7|
10---9--12--5|
-------------| x2


Pre-Chorus:

e|---------------------------------|
B|---------------------------------|
G|---------------------------------|
D|-5---------------7---------------|
A|-33333333333333335555555555555555|
E|---------------------------------|
    |pm...........| |pm............| x2

e|-------------------|
B|-------------------|
G|-------------------|
D|-5--7--9--12--11--7|
A|-3--5--7--10---9--5|
E|-------------------|

Chorus:

e|---------------------------------------------------|
B|---------------------------------------------------|
G|-9--9-9---------------------9--9-9-----------------|
D|-9--9-9----9--12--14--------9--9-9----9--12--14--11|
A|-7--7-7----7--10--12--12----7--7-7----7--10--12---9|
E|-0--0-0---------------10----0--0-0-----------------|

e|--------------------------------------------------------------|
B|--------------------------------------------------------------|
G|-9--9-9---------------------9--9-9----------------------------|
D|-9--9-9----9--12--14--------9--9-9----9--14--12--11--12--11--7|
A|-7--7-7----7--10--12--12----7--7-7----7--12--10---9--10---9--5|
E|-0--0-0---------------10----0--0-0----------------------------|


Bridge:                                  D|12|
                   |this is the G Chord: A|10|   |
e|-----------------------------------------------------------------|
B|-----------------------------------------------------------------|
G|-----------------------------------------------------------------|
D|-9---------------12------------------------------5---------------|
A|-7777777777777777101010101010101010101010101010103333333333333333|
E|-----------------------------------------------------------------|
   |pm.............| |pm..........................| |pm............|

e|-------------|
B|-------------|
G|-------------|
D|-5-------4--7|
A|-333333332--5|
E|-------------| x4


Song structure:  (Parethesis indicate what is being played by the second guitar)

Intro
Verse
Pre-Chorus
Chorus
Solo (Verse)
Verse
Pre-Chorus
Chorus
Bridge
Solo (Verse)
Solo (Pre Chorus)
Chorus

Leave a comment if you tried the tab :)
Tap to rate this tab
 
# A B C D E F G H I J K L M N O P Q R S T U V W X Y Z