Heather Williams - Hallelujah chords

Highlighted       Show chord diagrams
Intro

--18-----16-----18---------18-----14-16--|
16--16-14-----16--16-14--16--16-14-------|
-----------------------------------------|
-----------------------------------------|
-----------------------------------------|
-----------------------------------------|

Verse I
(Play intro again or) 

F#     B 
Jesus, please come
       F#   C#M 
Please come today
B  
Hear me
C#M   
Heal me
F#      B    C#M
Be near me I pray
       F#
I have fallen so far
B          C#M
Flat on my face
       F#           B
I'm in need of your grace
C#M
Today
      
  F#
I stumble and fall
       B           C#M
But in spite of it all
     B           F#        C#M
Your love always stays the same

Chorus 

Bmmaj9
Hallelujah
B          F# C#
Hallelujah


Verse II
F#             B
Jesus, please come
       F#   C#M
Please come today
B
Break me
C#M
Mold me
F#       C#M
Use me I pray

    F#         B
But don't give up on me now
       C#M          
I'm so close to you now
       B            F#    C#          
I'm in need of your grace today
         F#          B
Wipe the dirt off my face
        F#      B
Hold me in your embrace
     B6add9      C#        C#M
Your love always saves the day

Chorus 

Bmmaj9       Bmaj9  Bmaj13 
Hallelujah
B          Bmaj13 Bmaj13#11 C#
Hallelujah 

B6add9  B  B6 Bmmaj9 C#

Bridge
F#      B
On my knees here I fall
   B
In spite of it all
      F#
Hallelujah
    B               
And though it seems hard 
          Bmmaj9
I'm still trusting You, Lord
F#m  B9
Hallelujah
F#m  Bm9   C#
Hallelujah 

Repeat Verse I (play with tabs) 

--18-----16-----18---------18-----14-16--|
16--16-14-----16--16-14--16--16-14-------|
-----------------------------------------|
-----------------------------------------|
-----------------------------------------|
-----------------------------------------|

I have fallen so far 

Flat on my face

I'm in need of your grace today

Chorus 

Bmmaj9
Hallelujah
B          F#
Hallelujah
B     F#    C#M
Hallelujah
B     F#  C#M
Hallelujah

Outro

--18-----16-----18---------18-----14-16--|
16--16-14-----16--16-14--16--16-14-------|
-----------------------------------------|
-----------------------------------------|
-----------------------------------------|
-----------------------------------------|

Jesus, please come

Please come today

http://heatherwilliamsmusic.com/
Tap to rate this tab
 
# A B C D E F G H I J K L M N O P Q R S T U V W X Y Z