Song name
# A B C D E F G H I J K L M N O P Q R S T U V W X Y Z

Heavy Eyes - One Hand On The Buffalo tab

(/) Slide Up  (\) Slide Down  (h) Hammer On  (p) Pull Off  (b) Bend (r) Release (v) Vibrato

Listen to it and make the timing right, then go bananas.

Intro

D|--------------------------------------------------|x2
A|-------------8b9----------------------------------|
F|--\9-9-9-7-------9--------------------------------|
C|----------9-------------7-7-7-5-----------2-------|
G|-------------------------------7(v)-------2-------|
D|------------------------------------------0-------|

Main Riff

D|--------------------------------------------------|
A|-------------8b9----------------------------------|
F|--\9-9-9-7-------9--------------------------------|
C|----------9-------------7-7-7-5-------------------|
G|-------------------------------7-----5------------|
D|-----------------------------------7---3----------|


D|--------------------------------------------------|
A|-------------8b9----------------------------------|
F|--\9-9-9-7-------9--------------------------------|
C|----------9-------------7-7-7-5-------------------|
G|-------------------------------7-----5-7----------|
D|-----------------------------------7--------------|

D|------------------------------------------------|
A|------------------------------------------------|
F|------------------------------------------------|
C|-------------5b6--------------------------------|
G|--\7-7-7-5-------7-------------------5----------|
D|-----------7------------5-5-5-3-0--7---3--------|

D|------------------------------------------------|
A|------------------------------------------------|
F|------------------------------------------------|
C|-------------5b6--------------------------------|
G|--\7-7-7-5-------7-------------------5-7--------|
D|-----------7------------5-5-5-3-0--7------------|

Verse

D|------------------------------------------------|  x3
A|------------------------------------------------|
F|------------------------------------------------|
C|--9-999-99-99---12---7-777-77--99-9-999---------|
G|--7-777-77-77---10---5-555-55--77-7-777---------|
D|--0-000-00-00------------------00-0-000---------|


D|------------------------------------------------|
A|------------------------------------------------|
F|------------------------------------------------|
C|---9------x-12---7----7-------------------------|
G|---7------x-10---5----5-------------------------|
D|---0------x-------------------------------------|

Main Riff
Verse

Post chorus lick

D|------------------------------------------------|
A|------------------------------------------------|
F|------------------------------------------------|
C|------------------------------------------------|
G|--7-5--------------2------2---------------------|
D|-----7-5-3p0---3p0-0--3p0-0---------------------|

D|------------------------------------------------|
A|------------------------------------------------|
F|------------------------------------------------|
C|------------------------------------------------|
G|--7-5------------5-7---5-7----------------------|
D|-----7-5-3p0----7-----7-------------------------|x2

Main Riff/Solo
Post chorus lick

Outro

D|--------------------------------------------------| x2
A|-------------8b9----------------------------------|
F|--\9-9-9-7-------9--------------------------------|
C|----------9-------------7-7-7-5-------------------|
G|-------------------------------7------------------|
D|--------------------------------------------------|

D|---------------------------------------------------|
A|-------------8b9-10b11-----------------------------|
F|--\9-9-9-7-----------------------------------------|
C|----------9--------------7-7-7-5-------------------|
G|--------------------------------7------------------|
D|---------------------------------------------------|

D|---------------------------------------------------|
A|-------------8b9-----------------------------------|
F|--\9-9-9-7-------9---------------------------------|
C|----------9-------------7-7-7-5----------------2---|
G|-------------------------------7-----5-7-------2---|
D|-----------------------------------7-----------0---|
Tap to rate this tab
# A B C D E F G H I J K L M N O P Q R S T U V W X Y Z