Hed Pe - Get Away tab

Band: (hed) P.E. 
Song: Get Away
Album: Blackout 

Tabbed by:IbanezKorn

Tuning: Drop A (low to high): A-E-A-D-G-b



Riff A

b|-10-----10-----10-----8-| 
G|-9------9------9------7-|
D|------------------------|
A|------------------------|
E|------------------------|
A|------------------------|
(play this 3 times, then play the following)

b|-10-----10--------5--------------|
G|-9------9------------4---7--6----|
D|---------------------------------|
A|---------------------------------|
E|---------------------------------|
A|---------------------------------|

Riff B

b|---------------------------|
G|---------------------------|
D|---------------------------|
A|---------------------------|
E|---0-----8-----5-----3-----|
A|---0-----8-----5-----3-----|

Riff C

b|----------------|
G|----------------|
D|----------------|
A|----------------|
E|-0---3----------|
A|-0---3----------|
(after playing how ever many times needed, play the following)

b|----------------|
G|----------------|
D|----------------|
A|----------------|
E|-3-3-3-3-3-3----|
A|-3-3-3-3-3-3----|
pm:- - - - -


Intro (Drums only)
Verse 1 (Riff A)
Chorus (Riff B)
Verse 2 (Riff A)
Chorus (Riff B)
Bridge (Riff C)
Verse 3 (Riff A)
Chorus (Riff B)
Outro (Riff C)

************************************

| pm  palm mute
| /   slide up
| \   slide down
| h   hammer-on
| p   pull-off
| ~   vibrato
| +   harmonic
| x   Mute note
| b   Bend
| pb  Pre-bend
| br  Bend release
| pbr Pre-bend release
| brb Bend release bend

************************************
Tap to rate this tab
 
# A B C D E F G H I J K L M N O P Q R S T U V W X Y Z