Song name
# A B C D E F G H I J K L M N O P Q R S T U V W X Y Z

Hed Pe - Renegade tab

Help us improve GuitareTab! Take a short survey!
Song is in Drop B I do believe

Intro/Chorus

Gtr 1

C#|---------------------------------------|
G#|---------------------------------------|
E |1-1-1-2-2-2-2-2-2-2-3-3-3-2-2-2--------|
B |---------------------------------------|
F#|1-1-1-1-1-1-1-1-1-1-1-1-1-1-1-1--------|
B |---------------------------------------|

C#|---------------------------------------|
G#|---------------------------------------|
E |---------------------------------------|
B |---------------------------------------|
F#|5-5-5-7-7-7-7-7-7-7-8-8-8-7-7-7--------|
B |0-0-0-0-0-0-0-0-0-0-0-0-0-0-0-0--------|

C#|---------------------------------------|
G#|---------------------------------------|
E |---------------------------------------|
B |5-5-5-2-2-2-2-2-2-2-5-5-5-2-2-2--------|
F#|---------------------------------------|
B |3-3-3-3-3-3-3-3-3-3-3-3-3-3-3-3--------|

C#|---------------------------------------|
G#|5-5-5----------------------------------|
E |------5-5-5-5-5-5-5-5-5-5-5-5-5--------|
B |---------------------------------------|
F#|3-3-3-3-3-3-3-3-3-3-3-3-3-3-3-3--------|
B |---------------------------------------|

Gtr 2

C#|---------------------------------------|
G#|---------------------------------------|
E |3-3-3-3-3-3-3-3-3-3-3-3-3-3-3-3--------|
B |3-3-3-3-3-3-3-3-3-3-3-3-3-3-3-3--------|
F#|1-1-1-1-1-1-1-1-1-1-1-1-1-1-1-1--------|
B |---------------------------------------|

C#|---------------------------------------|
G#|---------------------------------------|
E |---------------------------------------|
B |0-0-0-0-0-0-0-0-0-0-0-0-0-0-0-0--------|
F#|0-0-0-0-0-0-0-0-0-0-0-0-0-0-0-0--------|
B |0-0-0-0-0-0-0-0-0-0-0-0-0-0-0-0--------|


C#|---------------------------------------|
G#|---------------------------------------|
E |---------------------------------------|
B |3-3-3-3-3-3-3-3-3-3-3-3-3-3-3-3--------|
F#|3-3-3-3-3-3-3-3-3-3-3-3-3-3-3-3--------|
B |3-3-3-3-3-3-3-3-3-3-3-3-3-3-3-3--------|

C#|---------------------------------------|
G#|---------------------------------------|
E |3-3-3-3-3-3-3-3-3-3-3-3-3-3-3-3--------|
B |3-3-3-3-3-3-3-3-3-3-3-3-3-3-3-3--------|
F#|3-3-3-3-3-3-3-3-3-3-3-3-3-3-3-3--------|
B |---------------------------------------|

Verse (Palm muting)

                 h   p
C#|---------------------------------------|
G#|---------------------------------------|
E |---------------------------------------|
B |0-0-6-7-6-3-1-3-1-0--------------------| x 8
F#|0-0-6-7-6-3-1-3-1-0--------------------|
B |0-0-6-7-6-3-1-3-1-0--------------------|

I havn't tabbed in the feel of the verse, you will have to listen to the song to get the 
but you get the idea.

Thats pretty much it. There is some shit in the bridge, but it is pretty much just the 
palm muting as in the verse.
Related for Renegade tab