Song name
# A B C D E F G H I J K L M N O P Q R S T U V W X Y Z

Hed Pe - Renegade chords

Hed Pe
New World Orphans
Renengade

This is obviously played on a 7 string but it is playable on a 6 string. I figured this
song out on a 6 string acoustic so it is possible to play on a 6 string guitar. I got
from watching live vidoes and listening by ear but I am pretty sure this is correct. I 
I would give back to U.G. because I pretty much learned how to play guitar from this
I will also be putting up more tabs escpecially for Hed PE. I cannot figure out the song 
so if any one knows how to play it please post it or email it to me gibson3d@yahoo.com

Palm Mute      .
Pinch Harmonic ^
Vibrato        ~
Pull Off       P

Chorus
Guitar 1
D:----------------------------------------------------------------|
A:----------------------------------------------------------------|
F:----------------------------------------------------------------|
C:777777777777777--------------------------------9999999999999999-|
G:777777777777777444444444444444477777777777777779999999999999999
D:555555555555555444444444444444477777777777777777777777777777777
A:---------------22222222222222225555555555555555----------------

Guitar 2
I think he is using a loop pedal live but if you do not have one just combine this riff
the root notes from guitar 1. Your gunna have to adapt though because your fingers don't
that way.
D:---------------------------------------------------------------|
A:---------------------------------------------------------------|
F:---------------8-----------------------------------------------|
C:56-7656-7696-96-9----------------------------------------------|
G:---------------------------------------------------------------|
D:---------------------------------------------------------------|
A:---------------------------------------------------------------|

Verse
This is the same as the bridge but just all muted with no chords.
D:---------------------------------------------------------------|
A:---------------------------------------------------------------|
F:---------------------------------------------------------------|
C:---5-6-5-------------------------------------------------------|
G:7--5-6-5--7-6765-----------------------------------------------|
D:7--3-4-3--7-6765-----------------------------------------------|
A:500-0-0-00504543-----------------------------------------------|
   .. . . .. .

Solo
This played with a whah pedal.
      P^ ^ ^ ^       P ^         P^ ^ ^ ^
D:---------------7-775-------------------------------------------|
A:6-664---------------64~----6-664-------------------------------|
F:-----5~5~5~5~-------------------5~5~5~5~-----------------------|
C:---------------------------------------------------------------|
G:---------------------------------------------------------------|
D:---------------------------------------------------------------|
A:---------------------------------------------------------------|

Outro
D:---------------------------------------------------------------|
A:---------------------------------------------------------------|
F:---------------------------------------------------------------|
C:---------------------------------------------------------------|
G:454-54---------------------------------------------------------|
D:454-54---------------------------------------------------------|
A:232-32---------------------------------------------------------|
Tap to rate this tab
# A B C D E F G H I J K L M N O P Q R S T U V W X Y Z