Song name
# A B C D E F G H I J K L M N O P Q R S T U V W X Y Z

Hedges Michael - Ready Or Not tab

"Ready or Not", by Michael Hedges, from "Live on the Double Planet"
	transcribed by ???

This is pretty close, but if anyone can make any suggestions for improvememt,
let me know.

By the way, does a studio version exist?


Tuning  :  C G C G B E



----------------|---------------|-----------0--|-------------------|
----------------|---------------|--------------|-1^0---------------|
---/7----0---0--|---/5---0---0--|---/12---11---|-----2^0-2^0-------|
---/7-----------|---/7----------|---/14--------|-0-----------4^2---|
-0---------5----|-0--------5----|-0------------|-------------------|  2x
-------0--------|------0--------|--------------|-------------------|


-------------|--------------|------------------------|
-------------|--------------|------------------------|
---5-5-----3-|----5-------3-|----5-5------3----0-----|
---5-5-----5-|----5-------5-|----5-5------5----5h----|
-------------|--------------|------------------5h----|
-3-----2/3---|--3-----2/3---|--3------2/3----3-------|


----------------|---------------------|-------------------|
----------------|---------------------|-------------------|
---2b3r2-0----0-|----9b10r9---12h---0-|---2b3r2-0-0---0---|
---5-------/7---|---12----------------|---5-------4^2-2---|
-0--------------|-0---------0-----0---|-0-------------0---|
----------------|---------------------|-------------------|
Tap to rate this tab
 
# A B C D E F G H I J K L M N O P Q R S T U V W X Y Z