Song name
# A B C D E F G H I J K L M N O P Q R S T U V W X Y Z

Hedley - Brave New World tab

Originally tabbed by guitarwomen in the full tab, but I made a few changes to 
sound how I thought it should.

H  hammer-on
/ - slide

e-----------------------------------------------------------------------|
B---------------------7-7-7-5---5-5/7---7-7-7-5---5---------------------|
G--6---6-6-4-6-h6-4-----------7-----------------7---7-7-6-7-6-----------|
D------------------------------------------------------------7-5--------|
A-----------------------------------------------------------------------|
E-----------------------------------------------------------------------|


e-----------------------------------------------------------------------|
B--8-8-8-7-----8-8------------------------------------------------------|
G----------9-7----6/7/6-------------------------------------------------|
D-----------------------7/9---------------------------------------------|
A-----------------------------------------------------------------------|
E-----------------------------------------------------------------------|
Tap to rate this tab
# A B C D E F G H I J K L M N O P Q R S T U V W X Y Z