Song name
# A B C D E F G H I J K L M N O P Q R S T U V W X Y Z

Hedley - Beautiful tab

Tabbed by : kayla321

I'm submitting the Beautiful tab again because I screwed up on the other one and I know
both parts now, and I don't know how to edit my other one.. and it's really
complicated.. it was my first tab.. so just ignore the other one I submitted.. haha :P

P.S Daves part is complicated to explane at some parts.. But i'll try my best. It helps
if you put Beautiful from Go With The Show on your iPod and listen to the left headphone
because Dave and Jakes parts are on different headphones if you know what I mean. Any 
questions? e-mail me at kaylathomas@live.ca. ANYWAYS I'LL SHUT UP NOW. Here's the tab.

Intro(Jake) Tuned Half-Step Down)

e|-----------------------------3-----------3----------3--------------|
B|------3----------3------3-----------3-----------3----------3-------|
G|------0--------0------0---0-------0---0------0----0-----0--------0-|
D|-------------------------------------------------------------0h2---| [X4]
A|---------Oh2-------2h3---------2----------1----------0-------------|
E|--3----------------------------------------------------------------|

Intro(Dave)(comes in after the 2nd time Jake plays the intro)(Tuned Stantard with capo
on 5th)

e|---------------4p2--------2p0--------------0----------0--------------|
B|--3-----------------3----------3--------3---------3------------------|
G|-----2-----------------2--------------2---2-----2---2---------0------|
D|--------0--0---------------------------------------------0h2---------|
A|----------------------------------4-----------2----------------------|
E|---------------------------------------------------------------------|

That repeats again except the ending is different.

e|---------------4p2--------2p0-------------------------------------2--|
B|--3-----------------3----------3---------3/5---------5/3----3-----3--|
G|-----2-----------------2--------------2----------0----------------2--|
D|--------0--0------------------------------------------------------0--|
A|----------------------------------4-------------------------------0--|
E|------------------------------------------------------------------0--|



Verse (Jake)
e|-------------------------------------------------------------------|
B|------3----3------3-----3-----3-----3------3-----3-----------------|
G|-------------------------------------------------------------------|
D|-------------------------------------------------------------------|
A|---------------3----3------2-----2------0------0-------------------|
E|--3----3-----------------------------------------------------------|
(Repeat twice, but intbetween eachother repeat the intro. So the verse is Verse, Intro,
Verse. If that makes any sence at all)



Verse (Dave)

During the verse Dave usually doesn't do anything, but in the newer videos sometimes he
lightly strums D, G(4 fingered),(continues below)
e|-3- and  e|-3-|
B|-3-      B|-3-|
D|-2-      D|-0-|
B|-0-      B|-2-|
A|-0-      A|-2-|
E|-2-      E|-0-|

It doesn't matter if you do it or not. the version in go with the show he doesn't do
anything, but in the USA tour he did. so whatever you want. It's the same idea as guitar 1,
do this (or nothing), Intro, this.


Chorus (Jake)
e|-------------------------------------------------------------------|
B|------3----3----3----3-----------------3----3-----3-----3----------|
G|-------------------------------------------------------------------| [X2]
D|-------------------------------------------------------------------|
A|----3----3----3----3-----------------------------------------------|
E|------------------------------------3----3-----3-----3-------------|


e|-------------------------------------------------------------------|
B|------3----3----3----3---3---3-------------------------------------|
G|----0----0----0----0---0---0---------------------------------------|
D|-------------------------------------------------------------------| [X2]
A|--3----3----2----2---0---0-----------------------------------------|
E|-------------------------------------------------------------------|



Chorus (Dave)

Its complicated to explane over the computer but i'll try my best..

Dave strums a G chord lightly, then swiches over to a D for a few strums and does
e|---------------4p2--------2p0-----|
B|--3-----------------3----------3--|
G|-----2-----------------2----------|
D|--------0--0----------------------|
A|----------------------------------|
E|----------------------------------|

do that X2.

Then the verse and chorus all repeats.

Then Jake and Dave strum the 3rd chord Dave strums in the verse (let's call it Asus4
cause thats what I think it is but i'm not sure) and after Jake says "yeah" they swich over
to G and keep swiching between G G5 and Asus4. After they both do that once, Jake keeps 
going, and Dave does a solo.


Dave's Solo. (According to frets with capo on)

e|----8-7-5-3--10-7-5-3-5-7-5/7-----------------5-5-5-5---------------|
B|-------------------------------8-7-5/4-3-------5-5-5-5--------------|
G|--------------------------------------------------------------------|
D|--------------------------------------------------------------------|
A|--------------------------------------------------------------------|
E|------------------------------------------------------------2h3h4h5-|

After that is the solo jake sings the chorus and keeps strumming like he did before and
during the solo and Dave does what he normally does for the chorus.

Then repeat the intro twice. End with a G strum.

I hope this all makes sence.. It's kinda hard to explane. E-mail me with any questions!
Have fun!
Tap to rate this tab
# A B C D E F G H I J K L M N O P Q R S T U V W X Y Z