Song name
# A B C D E F G H I J K L M N O P Q R S T U V W X Y Z

Heideroosjes - Nothings Wrong tab

De Heideroosjes – Nothings wrong.
Tabbed by – Michiel Peeters
Contact – michielos_@hotmail.com
Tab Nr. – 7.

INTRO
E||------------------------------------------------------|
B||------------------------------------------------------|
G||--10-8x---------8-------------------------------------| 2x
D||--10-----11-8x--8-16x---------------------------------|
A||--8------11-----6-------------------------------------|
E||---------9--------------------------------------------|
(intro and verse are the same, you can play 688 or 111313 it doesn’t matter it sounds 
same it’s just what you prefer.)
VERSE
E||------------------------------------------------------|
B||------------------------------------------------------|
G||--10-8x-----------------------------------------------| 4x
D||--10-----11-8x--13-8x---------------------------------|
A||--8------11-----13------------------------------------|
E||---------9------11------------------------------------|

CHORUS
E||--------------14--------------------------------------|
B||-----------14-----------------------------------------|
G||--10—8x-----------------------------------------------|
D||--10--------------------------------------------------| 4x
A||--8---------------------------------------------------|
E||------------------------------------------------------|
(4th time play the E-14 only)

VERSE
E||------------------------------------------------------|
B||------------------------------------------------------|
G||--10-8x-----------------------------------------------| 4x
D||--10-----11-8x--13-8x---------------------------------|
A||--8------11-----13------------------------------------|
E||---------9------11------------------------------------|

CHORUS
E||--------------14--------------------------------------|
B||-----------14-----------------------------------------|
G||--10—8x-----------------------------------------------|
D||--10--------------------------------------------------| 4x
A||--8---------------------------------------------------|
E||------------------------------------------------------|


--BRIDGE--
…Join my journey come on take a ride…

CHORUS
E||--------------14--------------------------------------|
B||-----------14-----------------------------------------|
G||--10—8x-----------------------------------------------|
D||--10--------------------------------------------------| 4x
A||--8---------------------------------------------------|
E||------------------------------------------------------|


OUTRO
E||------------------------------------------------------|
B||------------------------------------------------------|
G||--10—8x--12-------------------------------------------|
D||--10-----12-------------------------------------------| 4x
A||--8------9--------------------------------------------|
E||------------------------------------------------------|
Tap to rate this tab
# A B C D E F G H I J K L M N O P Q R S T U V W X Y Z