Song name
# A B C D E F G H I J K L M N O P Q R S T U V W X Y Z

Heights - Eye For An Eye tab

If you think any of this is wrong email me at elliotshikari@hotmail.com, I did it by 
ear, its an easy song and here are the parts. most of them just repeat, here are all the 
bits you need to play the song


Tuning is Drop B but with the Low B tuned to C#





Intro
-----------------------|
-----------------------|
-----------------------|
-----------------------|
-6-5-2-2-3-2-----------|
-4-3-0-0-1-0-----------| x 4



Pre Chorus


---------------------------------|
---------------------------------|
---------------------------------|
---------------------------------|
---------3-----------6-6-6-------|
1--0--0-----1-0--0---3-3-3-------|

Chorus


------------------------------------------------------------------|
------------------------------------------------------------------|
----16-18-18-18-18-18-20-20-20-20-20-21-21-21-21------------------|(Repeat and descend)
----X--X--X--X--X--X----------------------------------------------|
----14-16-16-16-16-16-18-18-18-18-18-19-19-19-19------------------|
------------------------------------------------------------------|


Outro


----------------------|
----------------------|
----------------------|
--2-------------------|
--2--7-5--------------|
--0--3-2--------------|



http://www.facebook.com/weareheights
Tap to rate this tab
 
# A B C D E F G H I J K L M N O P Q R S T U V W X Y Z