Song name
# A B C D E F G H I J K L M N O P Q R S T U V W X Y Z

Helios - Emancipation tab

Artist: Helios
Song: Emancipation
Album: Eingya
Helios Website: http://www.myspace.com/heliosmusic
Tabbed By: Jo Lefebure


e|--------0~~--0-1-3--0----0-------0----|
b|--1---1-------------1--1---1---3---3--|
g|--0-0---------------2-----------------|
d|--------------------------------------|
a|--3-----------------0-----------------|
e|-------------------------------3------|

e|--------0--0-1-3--0----0-------0----|
b|--1---1-----------1--1---1---3---3--|
g|--2---------------------------------|
d|----2-------------------------------|
a|--0---------------3-----------------|
e|-----------------------------3------|

e|--------0--0-1-3--0----0-------0----|
b|--1---1-----------1--1---1---3---3--|
g|--0-0-------------2-----------------|
d|------------------------------------|
a|--3---------------0-----------------|
e|-----------------------------3------|

e|--------0--0-1-3--0----0-------0----|
b|--1---1-----------1--1---1---3---3--|
g|--2---------------------------------|
d|----2-------------------------------|
a|--0---------------3-----------------|
e|-----------------------------3------|

e|---------0-------0----------------0------|
b|--1---1------3-------1---1-0--1-------1--|
g|--0-0----------0-----0-0------0----------|
d|------------------------------------2----|
a|---------0---0----------------3----------|
e|--1------------------1-------------------|

e|---------0-------0-----------------------|
b|--1---1------3-------1---1-0--1----------|
g|--0-0----------0-----0-0------0----------|
d|-----------------------------------------|
a|---------0---0----------------3----------|
e|--1------------------1-------------------|

e|-----------0--0-1-3--0----0-------0----|
b|-----1---1-----------1--1---1---3---3--|
g|----0--0-------------2-----------------|
d|---2-----------------------------------|
a|--3------------------0-----------------|
e|--------------------------------3------|

e|--------0--0-1-3--0----0-------0----|
b|--1---1-----------1--1---1---3---3--|
g|--2---------------------------------|
d|----2-------------------------------|
a|--0---------------3-----------------|
e|-----------------------------3------|

e|--------0--0-1-3--0----0-------0----|
b|--1---1-----------1--1---1---3---3--|
g|--0-0-------------2-----------------|
d|------------------------------------|
a|--3---------------0-----------------|
e|-----------------------------3------|

e|--------0--0-1-3--0----0-------0----|
b|--1---1-----------1--1---1---3---3--|
g|--2---------------------------------|
d|----2-------------------------------|
a|--0---------------3-----------------|
e|-----------------------------3------|

e|---------0-------0----------------0------|
b|--1---1------3-------1---1-0--1-------1--|
g|--0-0----------0-----0-0------0----------|
d|------------------------------------2----|
a|---------0---0----------------3----------|
e|--1------------------1-------------------|

e|---------0-------0-----------------------|
b|--1---1------3-------1---1-0--1----------|
g|--0-0----------0-----0-0------0----------|
d|-----------------------------------------|
a|---------0---0----------------3----------|
e|--1------------------1-------------------|
Tap to rate this tab
 
# A B C D E F G H I J K L M N O P Q R S T U V W X Y Z