Song name
# A B C D E F G H I J K L M N O P Q R S T U V W X Y Z

Helloween - Nabataea tab

1.------------------------------------------------|
2.------------------------------------8-9-12-11---|
3.-8-8-8-8---8-9---9-9-8-7---8-8-8-9--------------|
4.------------------------------------------------|
5.------------------------------------------------|
6.------------------------------------------------|

1.---------------------------------------------------|
2.------------------------------------11-12-12-12-11-|
3.-8-8-8-8---8-9---9-9-8-7---8-8-8-9-----------------|
4.---------------------------------------------------|
5.---------------------------------------------------|
6.---------------------------------------------------|

1.----------------------------------|
2.-9-11-11-11-9---8-9-9-9-8---------|
3.--------------------------9---6---|
4.----------------------------------|
5.----------------------------------|
6.----------------------------------|
Tap to rate this tab
# A B C D E F G H I J K L M N O P Q R S T U V W X Y Z