Song name
# A B C D E F G H I J K L M N O P Q R S T U V W X Y Z

Hellsongs - Run To The Hills tab

This is Hellsongs acoustic version of Run to the hills by Iron Maiden

http://www.hellsongs.com/
http://www.youtube.com/watch?v=pqAVk2c-Rac

Enjoy!


  Capo on the 2nd fret

  Intro

E|----3-----3----3----|
B|----0--0--0--0---0--|
G|--------------------| x4
D|--2-2-2-2-2-2-2-2---|
A|--------------------|
E|--------------------|


  VERSE

E|----3-----2----2----2-----0--------------------0---------------------------|
B|----0--0--0--0---0--0--0--0--0---0--0-----3------0---0-----2---------------|
G|-------------------------------0----0--0--2--2-------0--0--0--0---0--0-----|
D|--2-2-2-2-0-0-0-0-0-0-0-0-2-2-2-2---------0-0-0-0---------------2----2--2--|
A|----------------------------------3-3-3-3------------------0-0-0-0---------|
E|---------------------------------------------------3-3-3-0---------0-0-0-0-|


  2---------3--2--0------------------------------------------|
  ---3---3--------0----0-----0h1p0--3---------3-----2--------|
  -----2-------------0---0---0----0-0--0---0--0--0--2--2---0-|
  0-0-0-0-0-0-0-0------------------------4---------------2---|
  -------------------------3-3--3---5-5-5-5---------0-0-0-0--|
  ----------------0-0-0-0-------------------3-3-3-0----------|


  ----3-----2----2----2-----0--------------------0---------------------------|
  ----0--0--0--0---0--0--0--0--0---0--0-----3------0---0-----2---------------|
  -------------------------------0----0--0--2--2-------0--0--0--0---0--0-----|
  --2-2-2-2-0-0-0-0-0-0-0-0-2-2-2-2---------0-0-0-0---------------2----2--2--|
  ----------------------------------3-3-3-3------------------0-0-0-0---------|
  ---------------------------------------------------3-3-3-0---------0-0-0-0-|


  2---------5--3--0------------------------------------------|
  ---3---3--------0----0-----0h1p0--3---------3-----2--------|
  -----2-------------0---0---0----0-0--0---0--0--0--2--2---0-|
  0-0-0-0-0-0-0-0------------------------4---------------2---|
  -------------------------3-3--3---5-5-5-0---------0-0-0-0--|
  ----------------0-0-0-0-------------------3-3-3-0----------|


  PRE-CHORUS

E|----------2----------------0------------------|
B|----3--------3---0h1-1----------1---1-0-1-0-1-|
G|-------2-------2--------0-----0---0-0-0-0-0-0-|
D|--0-0-0-0-0-0-0-0-----------------------------|
A|-------------------3-3-3-3-3-3-3-3--3-3-3-3-3-|
E|----------------------------------------------|


  --------0h2---------------2----------------0-------------------|
  --3---------3---3---3--------3---0h1-1----------1---1-0-1-0-1--|
  -----2--------2--------2-------2--------0-----0---0-0-0-0-0-0--|
  0-0-0-0-0--0-0-0--0-0-0-0-0-0-0-0------------------------------|
  -----------------------------------3-3-3-3-3-3-3-3--3-3-3-3-3--|
  ---------------------------------------------------------------|


  BRIDGE

E|----------------0----------0---------------1----------------0h2------3-------5--------|
B|----2-----0h2--------1----------1----1----------1-----3---------3-------3-------3---0-|
G|-------2------2---0-----0-----0---0-----2-----2---2------2--------2-------2-------2---|
D|----------------------------------------------------0-0-0-0-0--0-0-0-0-0-0-0-0-0-0----|
A|--0-0-0-0-0--0-0-0-3-3-3-3-3-3-3-3----------------------------------------------------|
E|-----------------------------------1-1-1-1-1-1-1-1------------------------------------|


  CHORUS

E|----------3---------------1--------------------------------3---------|
B|----0----------0----1----------1----1---------1------0----------0----|
G|-------0-----0---0-----2-----2---0-----0--------0-------0-----0---0--| x2
D|------------------------------------------0h2-----0------------------|
A|----------------------------------3-3-3-3-3--3-3-3-------------------|
E|--3-3-3-3-3-3-3-3-1-1-1-1-1-1-1-1------------------3-3-3-3-3-3-3-3---|


  VERSE
  PRE-CHORUS
  BRIDGE
  CHORUS x4
  VERSE

  The End!


Niclas, sigmatoon@hotmail.com
Thanks to http://www.myspace.com/hellsongs
Tap to rate this tab
 
# A B C D E F G H I J K L M N O P Q R S T U V W X Y Z