Guitaretab - guitar tabs
Song name
# A B C D E F G H I J K L M N O P Q R S T U V W X Y Z

Helmet And Thomson - My Hero tab

by 09283150081
f_sario@yahoo.com
Tuning- standard with capo on 4th fret  
Intro-

|--0-0-0-4-4-4-4-4-4-4-4-4--|--0-0-0-4-4-4-4-4-4-4-4-4--|   |------------0~-|
|--0-0-0-4-4-7-4-4-4-7-5-5--|--0-0-0-4-4-7-4-4-4-7-5-5--|   |------------0~-|
|--1-1-1-4-4-4-4-4-4-4-4-4--|--1-1-1-4-4-4-4-4-4-4-4-4--|   |------------2~-|
|--2-2-2-6-6-6-6-6-6-6-6-6--|--2-2-2-6-6-6-6-6-6-6-6-6--|2x |------------2~-|
|--2-2-2-4-4-4-4-4-4-4-4-4--|--2-2-2-4-4-4-4-4-4-4-4-4--|   |------4-2---0~-|
|--0-0-0--------------------|--0-0-0--------------------|   |-2~-2-----4----|



Verse-          

|--0-0-0-4-4-4-4-4-4-4-4-4-4-|-0-0-0-4-4-4-4-4-4-4-4-4--|
|--0-0-0-4-4-4-4-4-4-4-4-4-4-|-0-0-0-4-4-7-4-4-4-7-5-5--|
|--1-1-1-4-4-4-4-4-4-4-4-4-4-|-1-1-1-4-4-4-4-4-4-4-4-4--|
|--2-2-2-6-6-6-6-6-6-6-6-6-6-|-2-2-2-6-6-6-6-6-6-6-6-6--|4x
|--2-2-2-4-4-4-4-4-4-4-4-4-4-|-2-2-2-4-4-4-4-4-4-4-4-4--|
|--0-0-0---------------------|-0-0-0--------------------|


Chorus - 
  
 
GtrI
|-0-0-0-0-0-0-0-0-0-0-0-0-0-0-0-0-0-0--|-0-0-0-0-0-0-0-0-0-0-0-0-0-0-0-0-0-0-|
|-0-0-0-0-0-0-0-0-0-0-0-0-0-0-0-0-0-0--|-0-0-0-0-0-0-0-0-0-0-0-0-0-0-0-0-0-0-|
|-2-2-2-2-2-2-2-2-2-2-2-2-2-2-2-2-2-2--|-2-2-2-2-2-2-2-2-2-2-2-2-2-2-2-2-2-2-|
|-2-2-2-2-2-2-2-2-2-2-2-2-2-2-2-2-2-2--|-2-2-2-2-2-2-2-2-2-2-2-2-2-2-2-2-2-2-|
|-0-0-0-0-0-0-0-0-0-0-0-0-0-0-0-0-0-0--|-0-0-0-0-0-0-0-0-0-0-0-0-0-0-0-0-0-0-|
|--------------------------------------|-------------------------------------|

|-0-0-0-0-0-0-0-0-0-0-0-0-0-0-0-0-0-0--|-0-0-0-0-0-0-0-0-0-0-0-0-0-0-0-0-0-0-|
|-0-0-0-0-0-0-0-0-0-0-0-0-0-0-0-0-0-0--|-0-0-0-0-0-0-0-0-0-0-0-0-0-0-0-0-0-0-|
|-1-1-1-1-1-1-1-1-1-1-1-1-1-1-1-1-1-1--|-1-1-1-1-1-1-1-1-1-1-1-1-1-1-1-1-1-1-|
|-2-2-2-2-2-2-2-2-2-2-2-2-2-2-2-2-2-2--|-2-2-2-2-2-2-2-2-2-2-2-2-2-2-2-2-2-2-|
|-2-2-2-2-2-2-2-2-2-2-2-2-2-2-2-2-2-2--|-2-2-2-2-2-2-2-2-2-2-2-2-2-2-2-2-2-2-|
|-0-0-0-0-0-0-0-0-0-0-0-0-0-0-0-0-0-0--|-0-0-0-0-0-0-0-0-0-0-0-0-0-0-0-0-0-0-|

GtrII 
|<----------2x------------------------>|<----------2x----------------------->|

|--------------------------------------|-------------------------------------|
|--------------------------------------|-------------------------------------|
|----------8-8-8-8-9-9-9-9-11-11-11-11-|---------8-8-8-8-9-9-9-9-11-11-11-11-|
|--7-7-7-7-x-x-x-x-x-x-x-x-x--x--x--x--|-2-2-2-2-x-x-x-x-x-x-x-x-x--x--x--x--|
|--x-x-x-x-6-6-6-6-7-7-7-7-9--9--9--9--|-2-2-2-2-6-6-6-6-7-7-7-7-9--9--9--9--|
|--5-5-5-5-----------------------------|-0-0-0-0-----------------------------|
 
 

|------------------------------------------|
|------------------------------------------|
|---------11-11-11-11-13-13-13-13-8-8-8-8--|
|-2-2-2-2-x--x--x--x--x--x--x--x--x-x-x-x--|
|-2-2-2-2-9--9--9--9--11-11-11-11-6-6-6-6--|
|-0-0-0-0----------------------------------|


|------------0~-|
|------------0~-| 
|------------2~-|
|------------2~-|
|------4-2---0~-|
|-2~-2-----4----|

do verse and chorus-

interlude-
[ Tab from: http://www.guitaretab.com/h/helmet-and-thomson/131603.html ]
GtrI
|-0~---0~-|---0~-----0~--------|  -------------------------------|
|-0~---0~-|---0~-----0~--------|  -------------------------------|
|-1~---1~-|---1~-----2~--------|  -------------------------------|
|-2~---2~-|---2~-----2~--------|2x-2-222222222222222222222222222-|
|-2~---2~-|---2~-----0~--------|  -2-222222222222222222222222222-|
|-0~---0~-|---0~---------------|  -0-000000000000000000000000000-|
                                     ************************
                              
GtrII
|--0~-0~-0~-0~-000000000000000~~~----------|
|--4~-5~-4~-0~-000000000000000~~~----------|
|-----------4~-----------------------------|
|------------------------------------------|4x
|------------------------------------------|
|------------------------------------------|

then-

|--0-0-0-4-4-4-4-4-4-4-4-4-4-|-0-0-0-4-4-4-4-4-4-4-4-4--|
|--0-0-0-4-4-4-4-4-4-4-4-4-4-|-0-0-0-4-4-7-4-4-4-7-5-5--|
|--1-1-1-4-4-4-4-4-4-4-4-4-4-|-1-1-1-4-4-4-4-4-4-4-4-4--|
|--2-2-2-6-6-6-6-6-6-6-6-6-6-|-2-2-2-6-6-6-6-6-6-6-6-6--|
|--2-2-2-4-4-4-4-4-4-4-4-4-4-|-2-2-2-4-4-4-4-4-4-4-4-4--|
|--0-0-0---------------------|-0-0-0--------------------|

Chorus - 3x
  
 
GtrI
|-0-0-0-0-0-0-0-0-0-0-0-0-0-0-0-0-0-0--|-0-0-0-0-0-0-0-0-0-0-0-0-0-0-0-0-0-0-|
|-0-0-0-0-0-0-0-0-0-0-0-0-0-0-0-0-0-0--|-0-0-0-0-0-0-0-0-0-0-0-0-0-0-0-0-0-0-|
|-2-2-2-2-2-2-2-2-2-2-2-2-2-2-2-2-2-2--|-2-2-2-2-2-2-2-2-2-2-2-2-2-2-2-2-2-2-|
|-2-2-2-2-2-2-2-2-2-2-2-2-2-2-2-2-2-2--|-2-2-2-2-2-2-2-2-2-2-2-2-2-2-2-2-2-2-|
|-0-0-0-0-0-0-0-0-0-0-0-0-0-0-0-0-0-0--|-0-0-0-0-0-0-0-0-0-0-0-0-0-0-0-0-0-0-|
|--------------------------------------|-------------------------------------|

|-0-0-0-0-0-0-0-0-0-0-0-0-0-0-0-0-0-0--|-0-0-0-0-0-0-0-0-0-0-0-0-0-0-0-0-0-0-|
|-0-0-0-0-0-0-0-0-0-0-0-0-0-0-0-0-0-0--|-0-0-0-0-0-0-0-0-0-0-0-0-0-0-0-0-0-0-|
|-1-1-1-1-1-1-1-1-1-1-1-1-1-1-1-1-1-1--|-1-1-1-1-1-1-1-1-1-1-1-1-1-1-1-1-1-1-|
|-2-2-2-2-2-2-2-2-2-2-2-2-2-2-2-2-2-2--|-2-2-2-2-2-2-2-2-2-2-2-2-2-2-2-2-2-2-|
|-2-2-2-2-2-2-2-2-2-2-2-2-2-2-2-2-2-2--|-2-2-2-2-2-2-2-2-2-2-2-2-2-2-2-2-2-2-|
|-0-0-0-0-0-0-0-0-0-0-0-0-0-0-0-0-0-0--|-0-0-0-0-0-0-0-0-0-0-0-0-0-0-0-0-0-0-|

GtrII 
|<----------2x------------------------>|<----------2x----------------------->|

|--------------------------------------|-------------------------------------|
|--------------------------------------|-------------------------------------|
|----------8-8-8-8-9-9-9-9-11-11-11-11-|---------8-8-8-8-9-9-9-9-11-11-11-11-|
|--7-7-7-7-x-x-x-x-x-x-x-x-x--x--x--x--|-2-2-2-2-x-x-x-x-x-x-x-x-x--x--x--x--|
|--x-x-x-x-6-6-6-6-7-7-7-7-9--9--9--9--|-2-2-2-2-6-6-6-6-7-7-7-7-9--9--9--9--|
|--5-5-5-5-----------------------------|-0-0-0-0-----------------------------|
 
 

|------------------------------------------|
|------------------------------------------|
|---------11-11-11-11-13-13-13-13-8-8-8-8--|
|-2-2-2-2-x--x--x--x--x--x--x--x--x-x-x-x--|
|-2-2-2-2-9--9--9--9--11-11-11-11-6-6-6-6--|
|-0-0-0-0----------------------------------|


then-
|------------0~-|
|------------0~-| 
|------------2~-|
|------------2~-|
|------4-2---0~-|
|-2~-2-----4----|

               
Related for My Hero tab