Song name
# A B C D E F G H I J K L M N O P Q R S T U V W X Y Z

Helmet - Army Of Me tab

-----------------------------------------------------------------------------
                           ARMY OF ME - Helmet
-----------------------------------------------------------------------------

Tabbed by an17nin17
email - c.norman83@ntlworld.com

Standard Tuning – E, A, D, G, B, E

Verse

|----------------|
|-BASS-AND-DRUMS-|
|----------------|
|----------------|
|---THROUGHOUT---|
|----------------|

Chorus

|--------------|
|--------------|
|--------------|
|-8--7--6--<4>-|
|-8--7--6--<4>-|
|-6--5--4--<4>-|
  Play x 8

|----------------|
|-BASS-AND-DRUMS-|
|----------------|
|----------------|
|---THROUGHOUT---|
|----------------|

|--------------|-------------|
|--------------|-------------|
|--------------|-15^~~---x-x-|
|-8--7--6--<4>-|-------------|
|-8--7--6--<4>-|-------------|
|-6--5--4--<4>-|-------------|
  Play x 8     |

|----------------|
|-BASS-AND-DRUMS-|
|----------------|
|----------------|
|---THROUGHOUT---|
|----------------|

Outro

|--------------|
|--------------|
|--------------|
|-8--7--6--<4>-|
|-8--7--6--<4>-|
|-6--5--4--<4>-|
  Play x 36

And Thats it.

Contact me if you have any comments on this tab or any of the other tabs I have done.
Tap to rate this tab
# A B C D E F G H I J K L M N O P Q R S T U V W X Y Z