Song name
# A B C D E F G H I J K L M N O P Q R S T U V W X Y Z

Hem - Leave Me Here tab

Standard Tuning.  Capo 1.

This is entirely by ear but I think it sounds rather good

Verse:

I             should        wake up this town
-3-----3-----|-3-----3-----|-3---3---3---|-3---2h3p2---|
---3-----3---|---3-----3---|---3---3---3-|---3-------3-|
-----0-----0-|-----0-----0-|-------------|-----0-------|
-2-----------|-4-----------|-5---4---0---|-------------|
-------------|-------------|-------------|-3-----------|
-------------|-------------|-------------|-------------|

heart's       on             fire
-3-----3-----|-3-----3-----|-3-----3-----|----3----3---|
---3-----3---|---3-----3---|---3-----3---|-5----3------|
-----0-----0-|-----0-----0-|-----0-----0-|---0----0----|
-2-----------|-4-----------|-------------|-------------|
-------------|-------------|-3-----------|-------------|
-------------|-------------|-------------|-------------|

Pre-Chorus:

light          of           day           so as I
-3-----3-----|-3-----3-----|-3-----3-----|-3-----3-----|
---3-----3---|---3-----3---|---3-----3---|---3-----3---|
-----0-----0-|-----0-----0-|-----0-----0-|-----0-----0-|
-2-----------|-4-----------|-------------|-------------|
-------------|-------------|-------------|-------------|
-------------|-------------|-3-----------|-------------|

Chorus:

rise               I will    reach for     the living
-0-----0-----|-0-----0-----|-3-----3-----|-3-----3-----|
---1-----1---|---1-----1---|---3-----3---|---3-----3---|
-----0-----0-|-----0-----0-|-----0-----0-|-----0-----0-|
-------------|-------------|-------------|-------------|
-0-----------|-------------|-2-----------|-------------|
-------------|-------------|-------------|-------------|

 I'll              say no    prayer            cause to-
-3-----3-----|-3-----3-----|-3-----3-----|-2-----2-----|
---3-----3---|---3-----3---|---3-----3---|---3-----3---|
-----0-----0-|-----0-----0-|-----0-----0-|-----0-----0-|
-------------|-------------|-------------|-------------|
-3-----------|-------------|-2-----------|-------------|
-------------|-------------|-------------|-------------|

 night             he        brought me   to heaven and
-0-----0-----|-0-----0-----|-3-----3-----|-3-----3-----|
---1-----1---|---1-----1---|---3-----3---|---3-----3---|
-----0-----0-|-----0-----0-|-----0-----0-|-----0-----0-|
-------------|-------------|-------------|-------------|
-0-----------|-------------|-2-----------|-------------|
-------------|-------------|-------------|-------------|

 left          me          (here)
-3-----3-----|-2-----2-----|
---3-----3---|---3-----3---|
-----0-----0-|-----0-----0-|
-2-----------|-4-----------|
-------------|-------------|
-------------|-------------|
Tap to rate this tab
 
# A B C D E F G H I J K L M N O P Q R S T U V W X Y Z