Song name
# A B C D E F G H I J K L M N O P Q R S T U V W X Y Z

Herb Alpert And The Tijuana Brass - Spanish Flea tab

The rythm might be a little weird on the paper, so you just have to listen to the song 
copy it. This is my first tab so tell me if anything is wrong..:)

Play it like this:
Chorus
Verse
Chorus
Verse
Chorus
Verse
Chorus

Chorus:
|--------------------------------------------------------------------|
|---------3-3-1-0------------1-1------------------------1------2-----|
|---------------------0---------3-2--------------3-0--3------1---3---|
|-0-1-2-3--------------4-3-2-----------3-2-1-0-3-----------3---------|
|--------------------------------------------------------------------|
|--------------------------------------------------------------------|

|---0-2----2-2-4-2---------------------------------------------------|
|-2----------------1---3-3-1-0--------------1-1---------------------1|
|--------------------3--------------0-----------3-2-----------3-0--3-|
|-------------------------------------4-3-2---------3-2-1-0-3--------|
|--------------------------------------------------------------------|
|--------------------------------------------------------------------|

|------------0--2----2-2-4-2--------2-2----2---2-----2--2-2--2-------|
|-----2----2-----------------1---------------------------------------|
|---1---3-----------------------3------------3---------3------3------|
|-3-------------------------------------3---------3-3-------3--------|
|--------------------------------------------------------------------|
|--------------------------------------------------------------------|

Verse:
|-------0--0-2-0-4-2-0-------------------------------------0---2-0---|
|---1-3-----------------2-1---------0-1-------------2-2--2---2-----2-|
|-3-------------------------3-1-1-3--------1-------------------------|
|--------------------------------------------4--3--------------------|
|--------------------------------------------------------------------|
|--------------------------------------------------------------------|

|--------------------------------------------------------------------|
|-0-------------------1----------------------------------------------|
|---3-1-----1-3--2-3-------------------------------------------------|
|-------4-4----------------------------------------------------------|
|--------------------------------------------------------------------|
|--------------------------------------------------------------------|
Tap to rate this tab
# A B C D E F G H I J K L M N O P Q R S T U V W X Y Z