Song name
# A B C D E F G H I J K L M N O P Q R S T U V W X Y Z

Herbie Hancock - Watermelon Man tab

E -------------------------------|
B --4---------------1--3---------|
G ------------------1--3---------|
D -----------3-3------------3----|
A -------------------------------|
E -------------------------------|


E --1----------------------------|
B -----------------1--3----------|
G -----------------1--3----------|
D -----------3-3------------3----|
A -------------------------------|
E -------------------------------|


E ---------3---5----4-3-1----1---3|
B --1-1-------------------3-------|
G --------------------------------|
D --------------------------------|
A --------------------------------|
E --------------------------------|


E ---------3---5----4-3-1---------|
B --1-1-------------------3--1--3-|
G --------------------------------|
D --------------------------------|
A --------------------------------|
E --------------------------------|


E ---------3---4--1---------------|
B --1-1-------------------1-3-----|
G ------------------------1-3-----|
D -------------------3-3-------3--|
A --------------------------------|
E --------------------------------|
Tap to rate this tab
# A B C D E F G H I J K L M N O P Q R S T U V W X Y Z