Song name
# A B C D E F G H I J K L M N O P Q R S T U V W X Y Z

Here Comes The Kraken - Dont Fail Me Darko tab

-------------------------------------------------------------------------------
                  Don't Fail Me Drako - Here Comes The Kraken
-------------------------------------------------------------------------------


Tabbed by: Zeusimo
http://myspace.com/jessei_f
http://profile.ultimate-guitar.com/zeusimo/

Tuning: Drop C (C-G-C-F-A-D)

Just The Solo I Will Upload The Whole Song Once I'm Finished With It =D
It Should Be 100% Correct But If You Find An Error Pease Tell Me
Enjoy This Shit XD

D|--------------------------------13h17p13-------------|
A|-----------------------------15----------15----------|
F|--------------------------14----------------14-------|
C|-----------------------15----------------------15----|
G|--------------------17----------------------------17-|
C|0-0-0-0-0-0-0-0-0-0----------------------------------|

D|----------------------13h17-|
A|-------------------15-------|
F|----------------14----------|
C|-------------15-------------|
G|----------17----------------|
C|0-0-0-0-0-------------------|

D|----------------------13h17p13-------------|
A|-------------------15----------15----------|
F|----------------14----------------14-------|
C|-------------15----------------------15----|
G|----------17----------------------------17-|
C|0-0-0-0-0----------------------------------|-\x3
                                               /
D|----------------------13h17-|---------------/
A|-------------------15-------|
F|----------------14----------|
C|-------------15-------------|
G|----------17----------------|
C|0-0-0-0-0-------------------|

D|----------------------12h15p12-------------|x4
A|-------------------13----------13----------|
F|----------------12----------------12-------|
C|-------------13----------------------13----|
G|----------15----------------------------15-|
C|0-0-0-0-0----------------------------------|

D|-------------------13-17-13----------17p13-17p13-17p13-------|
A|----------------15----------15----15-------------------15----|
F|---14\-------14----------------14-------------------------14-|
C|/12-------15-------------------------------------------------|
G|-------17----------------------------------------------------|
C|-------------------------------------------------------------|

D|------------13-17-13----------17p13----------|
A|---------15----------15----15-------15-------|
F|------14----------------14-------------14----|
C|---15----------------------------------------|
G|17----------------------------------------17-|
C|---------------------------------------------|

D|---------------------------------------------13-17b-|
A|---------------14-15-17-15-14-14h15p14-15-13--------|
F|---------14-15--------------------------------------|
C|---14-15--------------------------------------------|
G|17--------------------------------------------------|
C|----------------------------------------------------|

D|17p13----------17p13-17p13-17p13----------17p13-17p13-|
A|------15----15-------------------15----15-------------|
F|---------14-------------------------14----------------|
C|------------------------------------------------------|
G|------------------------------------------------------|
C|------------------------------------------------------|

D|15p12----------15p12-15p12-15p12----------15p12-15p12-|
A|------13----13-------------------13----13-------------|
F|---------12-------------------------12----------------|
C|------------------------------------------------------|
G|------------------------------------------------------|
C|------------------------------------------------------|

D|12p8---------12p8---------12p8---------12p8---------|
A|-----10---10------10---10------10---10------10---10-|
F|--------9------------9------------9------------9----|
C|----------------------------------------------------|
G|----------------------------------------------------|
C|----------------------------------------------------|

D|10p6-------12p8---------15p12----------17p13-/22-----|
A|-----8---8------10---10-------13----13---------------|
F|-------7-----------9-------------12--------------(0)-|
C|-----------------------------------------------------|
G|-----------------------------------------------------|
C|-----------------------------------------------------|
Tap to rate this tab
# A B C D E F G H I J K L M N O P Q R S T U V W X Y Z