Song name
# A B C D E F G H I J K L M N O P Q R S T U V W X Y Z

Heroes Del Silencio - Sirena Varada tab

intro:
 G#m
e|-------------------------------------------|
b|-------------------------------------------|
g|------8------9-8-------------8-------------|
d|--6-6---6--6------6--6-8-8\9---9-----------|
a|-------------------------------------------|
e|-------------------------------------------|

  B                            E
e|----------------------------|---------------------|
b|----------------------7-----|---------------------|
g|-----8------9-8-----8---8---|------8--6--8--------|
d|---9---9-9------9-9-------9-|----9----------9-----|
a|----------------------------|--7------------------|
e|-7--------------------------|---------------------|

  F#                   E
e|--------------------|----7--7--7--7--|
b|--------------------|----7--7--7--7--|
g|------11-----11-----|----9--9--9--9--|
d|---11----11-----11--|----9--9--9--9--|
a|-9------------------|-7--------------|
e|--------------------|----------------|

verse:
G#m                                  F#
Y me enredado siempre entre al--gas,  maraņa contra los dedo---s
e|--------------2-----------2--------|2----------2--------------2--|
b|---------2------2-------------2----|2--2-----------2-----2-------|
g|-----4-----4------4--------------4-|3----3-------------3----3----|
d|--6----6---------------------------|4----------------------------|
a|--6--------------------------------|4----------------------------|
e|-----------------------------------|2----------------------------|

G#m                                    F#m
Encierras la ma-de-ja--------------con el fasti-dio- del destino
e|-----------------------------4------|2---------2------2-------|
b|----------2-------4------------4----|2--2-----------2---2----2|
g|----4-------4-------4-------------4-|3----3-------3-------3---|
d|------6-------6-------6-------------|4------------------------|
a|-6----------------------------------|4------------------------|
e|------------------------------------|2------------------------|

E                                  G#m
y el mordisco    lo  da--n otro--s encia--s en-san-gre--ntadas
e|7---7-----7----7-------7----7---|4----4-----4---4-----4-|
b|7---7-----7----7-------7----7---|4----4-----4---4-----4-|
g|9---9-----9----9-------9----9---|4----4-----4---4-----4-|
d|9---9-----9----9-------9----9---|6----6-----6---6-----6-|
a|7---7-----7----7-------7----7---|6----6-----6---6-----6-|
e|7---7-----7----7-------7----7---|4----4-----4---4-----4-|

E                             F#
y mirada--s de crimi--na--les A grandes ras--go--s podria
e|7-----7------7------7---7--|2----2----2-------2--------|
b|7-----7------7------7---7--|2----2----2-------2--------|
g|9-----9------9------9---9--|3----3----3-------3--------|
d|9-----9------9------9---9--|4----4----4-------4--------|
a|7-----7------7------7---7--|4----4----4-------4--------|
e|7-----7------7------7---7--|2----2----2-------2--------|

G#m
se---r  tu
e|-----------------------|
b|-----------------------|
g|-----------------------|
d|6-6-6-6-6-6-6-6-6-6-6-6|
a|6-6-6-6-6-6-6-6-6-6-6-6|
e|4-4-2-4-4-2-4-2-4-4-2-4| 

chorus:
B                          F#m
                         lo---s parpados no aguanta--n ya---
due---rme un poco ma-----s                                lue-
e|2-----2---------2--------|2-----2------------2---------------|
b|4-4-----4---------4----4-|2-2-----2-----2---------2----------|
g|4---4-----4--------------|3---3-----------3-----3------------|
d|4-----------4--------4---|4----------------------------------|
a|2------------------------|4-----------4----------------------|
e|-------------------------|2----------------------------------|

G#m                              E
go-- estan la--s decepcio--ne--s cuando el cierzo no parece
e|4-4------------------------------2--------7-----7-------|
b|4---4---------4-----5--4-----4-----4--------4-----4-----|
g|4------------------------------5-----5--------5-----5---|
d|6------6---------6--------2------------2----------------|
a|6-------------------------------------------------------|
e|4-------------------------------------------------------|

B                             F#
                            var----da por la rea--lidad  sufrir
sirena  vue---lve al ma------r
e|2-----2-------------2--------|2-----2------------2----------|
b|4-4-----4------------4-------|2-2-----2-----2----------2----|
g|4--4------4---------------4--|3--3------------3-----3-------|
d|4-----------4-----------4----|4-----------------------------|
a|2----------------------------|4----------4------------------|
e|-----------------------------|2-----------------------------|

G#m                               E
de a--lucina--cio--ne---s  cuando el cie--lo no--- parace escu--
e|4-4-----------------------|-------2---------7------7---------|
b|4---4-----4-----------5-4-|--4------4---------4------4-------|
g|4-------------------------|----5------5---------5------5-----|
d|6-----6-------6-----------|2------------2--------------------|
a|6-------------------------|----------------------------------|
e|4-------------------------|----------------------------------|

F#                               B   E
cha------------------r
e|2----------2-------------2-----7---7----7---7----7--|
b|2----------2-------------2-----7---7----7---7----7--|
g|3----------3-------------3-----7---9----9---9----9--|
d|4------------------------4-----8---9----9---9----9--|
a|4------------------------4-----9---7----7---7----7--|
e|2------------------------2-----9---7----7---7----7--|

Verse

Intro again

verse
B                       D#m
El miedo a traspasar la   fron-----tera    de lo---s

G#m               B: D#m
no------mbre---s     como un  extra--ņo  hu-----------

C#m                        F#
dibuja-- la    espira---l  de la de--rr----ta -------

G#m                 F# : G#m
y o---scure------ce           tanto---s  hala--go--s

C#m             F#            G#m           B : E : B
so------lo e---n la   memo-ria    que se va-------------

F#               B : G#m            B : F#
------------------------------------------------

solo:

e|-------------------------------------------------------------------|
b|-------------------------------------------------------------------|
g|-13-13h11----11-13--13-13h11----11-13--13-13h11--11----------------|
d|----------13-----------------13----------------13---11/-9/-8-------|
a|--------------------------------------------------------------9----|
e|-----------------------------------------------------------------9/|

e|---------------------------------------------------|
b|12-12h11h9-11-12--12\14-12h11h12h11----------------|
g|------------------------------------13h11----11----|
d|------------------------------------------13----13-|
a|---------------------------------------------------|
e|---------------------------------------------------|

e|---------------16-----16-----16--------------------19------|
b|-------16--^19----^19----^19----19h16-19-16----------19----|
g|13\18---------------------------------------18-16----------|
d|-----------------------------------------------------------|
a|-----------------------------------------------------------|
e|-----------------------------------------------------------|

e|-----------------------------12----12---12----------------|
b|19-h-16----16---------12--14----14----14----14h12-14-12-14|
g|--------18--------13--------------------------------------|
d|----------------------------------------------------------|
a|----------------------------------------------------------|
e|----------------------------------------------------------|

e|14---------------------|
b|---14--12--11----------|
g|---------------11--13/-|
d|-----------------------|
a|-----------------------|
e|-----------------------|
Tap to rate this tab
 
# A B C D E F G H I J K L M N O P Q R S T U V W X Y Z